  0
SECTION
  2
HEADER
  9
$ACADVER
  1
AC1009
  9
$INSUNITS
 70
     1
  0
ENDSEC
  0
SECTION
  2
TABLES
  0
TABLE
  2
LAYER
 70
     8
  0
LAYER
  2
0
 62
     7
 70
0
  6
CONTINUOUS
  0
LAYER
  2
1
 62
     1
 70
0
  6
CONTINUOUS
  0
LAYER
  2
2
 62
     2
 70
0
  6
CONTINUOUS
  0
LAYER
  2
3
 62
     3
 70
0
  6
CONTINUOUS
  0
LAYER
  2
4
 62
     4
 70
0
  6
CONTINUOUS
  0
LAYER
  2
5
 62
     5
 70
0
  6
CONTINUOUS
  0
LAYER
  2
6
 62
     6
 70
0
  6
CONTINUOUS
  0
LAYER
  2
7
 62
     7
 70
0
  6
CONTINUOUS
  0
ENDTAB
  0
TABLE
  2
STYLE
 70
     1
  0
STYLE
 70
     0
  2
STANDARD
  3
TXT
 40
0.00
 41
1.00
 42
1.00
 50
0.00
 71
     0
  0
ENDTAB
  0
ENDSEC
  0
SECTION
  2
BLOCKS
  0
BLOCK
  8
0
  2
EPAD
 70
0
 10
0.0
 20
0.0
  0
POLYLINE
  8
0
 66
1
 70
1
 40
0.5
 41
0.5
  0
VERTEX
  8
0
 10
-0.25
 20
0.0
 42
1.0
  0
VERTEX
  8
0
 10
0.25
 20
0.0
 42
1.0
  0
SEQEND
  8
0
  0
ENDBLK
  8
0
  0
BLOCK
  8
0
  2
RPAD
 70
0
 10
0.0
 20
0.0
  0
TRACE
  8
0
 10
-0.5
 20
-0.5
 11
-0.5
 21
0.5
 12
0.5
 22
-0.5
 13
0.5
 23
0.5
  0
ENDBLK
  8
0
  0
ENDSEC
0
SECTION
2
ENTITIES
0
INSERT
8
0
2
EPAD
10
-0.323154
20
-0.440500
41
0.019685
42
0.019685
0
CIRCLE
8
0
10
-0.323154
20
-0.440500
40
0.010000
0
INSERT
8
0
2
EPAD
10
-0.257654
20
-0.513500
41
0.019685
42
0.019685
0
CIRCLE
8
0
10
-0.257654
20
-0.513500
40
0.010000
0
INSERT
8
0
2
EPAD
10
-0.278492
20
-0.395259
41
0.019685
42
0.019685
0
CIRCLE
8
0
10
-0.278492
20
-0.395259
40
0.010000
0
INSERT
8
0
2
EPAD
10
-0.228807
20
-0.395259
41
0.019685
42
0.019685
0
CIRCLE
8
0
10
-0.228807
20
-0.395259
40
0.010000
0
INSERT
8
0
2
EPAD
10
-0.278492
20
0.121081
41
0.019685
42
0.019685
0
CIRCLE
8
0
10
-0.278492
20
0.121081
40
0.010000
0
INSERT
8
0
2
EPAD
10
-0.278492
20
0.207138
41
0.019685
42
0.019685
0
CIRCLE
8
0
10
-0.278492
20
0.207138
40
0.010000
0
INSERT
8
0
2
EPAD
10
-0.316654
20
-0.472000
41
0.019685
42
0.019685
0
CIRCLE
8
0
10
-0.316654
20
-0.472000
40
0.010000
0
INSERT
8
0
2
EPAD
10
-0.188654
20
-0.467000
41
0.019685
42
0.019685
0
CIRCLE
8
0
10
-0.188654
20
-0.467000
40
0.010000
0
INSERT
8
0
2
EPAD
10
-0.269280
20
0.077644
41
0.019685
42
0.019685
0
CIRCLE
8
0
10
-0.269280
20
0.077644
40
0.010000
0
INSERT
8
0
2
EPAD
10
-0.705815
20
0.146380
41
0.019685
42
0.019685
0
CIRCLE
8
0
10
-0.705815
20
0.146380
40
0.010000
0
INSERT
8
0
2
EPAD
10
-0.313965
20
-0.403543
41
0.019685
42
0.019685
0
CIRCLE
8
0
10
-0.313965
20
-0.403543
40
0.010000
0
INSERT
8
0
2
EPAD
10
0.511890
20
0.148760
41
0.019685
42
0.019685
0
CIRCLE
8
0
10
0.511890
20
0.148760
40
0.010000
0
INSERT
8
0
2
EPAD
10
-0.254437
20
0.180715
41
0.019685
42
0.019685
0
CIRCLE
8
0
10
-0.254437
20
0.180715
40
0.010000
0
INSERT
8
0
2
EPAD
10
-0.735000
20
0.162500
41
0.019685
42
0.019685
0
CIRCLE
8
0
10
-0.735000
20
0.162500
40
0.010000
0
INSERT
8
0
2
EPAD
10
-0.685000
20
0.167500
41
0.019685
42
0.019685
0
CIRCLE
8
0
10
-0.685000
20
0.167500
40
0.010000
0
INSERT
8
0
2
EPAD
10
-0.735000
20
0.127500
41
0.019685
42
0.019685
0
CIRCLE
8
0
10
-0.735000
20
0.127500
40
0.010000
0
INSERT
8
0
2
EPAD
10
-0.680000
20
0.127500
41
0.019685
42
0.019685
0
CIRCLE
8
0
10
-0.680000
20
0.127500
40
0.010000
0
INSERT
8
0
2
EPAD
10
-0.703374
20
0.081484
41
0.019685
42
0.019685
0
CIRCLE
8
0
10
-0.703374
20
0.081484
40
0.010000
0
INSERT
8
0
2
EPAD
10
-0.230089
20
0.077611
41
0.019685
42
0.019685
0
CIRCLE
8
0
10
-0.230089
20
0.077611
40
0.010000
0
INSERT
8
0
2
EPAD
10
-0.190404
20
0.077611
41
0.019685
42
0.019685
0
CIRCLE
8
0
10
-0.190404
20
0.077611
40
0.010000
0
INSERT
8
0
2
EPAD
10
-0.150719
20
0.077611
41
0.019685
42
0.019685
0
CIRCLE
8
0
10
-0.150719
20
0.077611
40
0.010000
0
INSERT
8
0
2
EPAD
10
-0.111033
20
0.077611
41
0.019685
42
0.019685
0
CIRCLE
8
0
10
-0.111033
20
0.077611
40
0.010000
0
INSERT
8
0
2
EPAD
10
-0.071348
20
0.077611
41
0.019685
42
0.019685
0
CIRCLE
8
0
10
-0.071348
20
0.077611
40
0.010000
0
INSERT
8
0
2
EPAD
10
-0.031663
20
0.077611
41
0.019685
42
0.019685
0
CIRCLE
8
0
10
-0.031663
20
0.077611
40
0.010000
0
INSERT
8
0
2
EPAD
10
0.008022
20
0.077611
41
0.019685
42
0.019685
0
CIRCLE
8
0
10
0.008022
20
0.077611
40
0.010000
0
INSERT
8
0
2
EPAD
10
-0.249931
20
0.111979
41
0.019685
42
0.019685
0
CIRCLE
8
0
10
-0.249931
20
0.111979
40
0.010000
0
INSERT
8
0
2
EPAD
10
-0.210246
20
0.111979
41
0.019685
42
0.019685
0
CIRCLE
8
0
10
-0.210246
20
0.111979
40
0.010000
0
INSERT
8
0
2
EPAD
10
-0.170561
20
0.111979
41
0.019685
42
0.019685
0
CIRCLE
8
0
10
-0.170561
20
0.111979
40
0.010000
0
INSERT
8
0
2
EPAD
10
-0.130876
20
0.111979
41
0.019685
42
0.019685
0
CIRCLE
8
0
10
-0.130876
20
0.111979
40
0.010000
0
INSERT
8
0
2
EPAD
10
-0.091191
20
0.111979
41
0.019685
42
0.019685
0
CIRCLE
8
0
10
-0.091191
20
0.111979
40
0.010000
0
INSERT
8
0
2
EPAD
10
-0.051506
20
0.111979
41
0.019685
42
0.019685
0
CIRCLE
8
0
10
-0.051506
20
0.111979
40
0.010000
0
INSERT
8
0
2
EPAD
10
-0.011821
20
0.111979
41
0.019685
42
0.019685
0
CIRCLE
8
0
10
-0.011821
20
0.111979
40
0.010000
0
INSERT
8
0
2
EPAD
10
-0.230089
20
0.146347
41
0.019685
42
0.019685
0
CIRCLE
8
0
10
-0.230089
20
0.146347
40
0.010000
0
INSERT
8
0
2
EPAD
10
-0.190404
20
0.146347
41
0.019685
42
0.019685
0
CIRCLE
8
0
10
-0.190404
20
0.146347
40
0.010000
0
INSERT
8
0
2
EPAD
10
-0.150719
20
0.146347
41
0.019685
42
0.019685
0
CIRCLE
8
0
10
-0.150719
20
0.146347
40
0.010000
0
INSERT
8
0
2
EPAD
10
-0.111033
20
0.146347
41
0.019685
42
0.019685
0
CIRCLE
8
0
10
-0.111033
20
0.146347
40
0.010000
0
INSERT
8
0
2
EPAD
10
-0.071348
20
0.146347
41
0.019685
42
0.019685
0
CIRCLE
8
0
10
-0.071348
20
0.146347
40
0.010000
0
INSERT
8
0
2
EPAD
10
-0.031663
20
0.146347
41
0.019685
42
0.019685
0
CIRCLE
8
0
10
-0.031663
20
0.146347
40
0.010000
0
INSERT
8
0
2
EPAD
10
0.008022
20
0.146347
41
0.019685
42
0.019685
0
CIRCLE
8
0
10
0.008022
20
0.146347
40
0.010000
0
INSERT
8
0
2
EPAD
10
-0.210246
20
0.180715
41
0.019685
42
0.019685
0
CIRCLE
8
0
10
-0.210246
20
0.180715
40
0.010000
0
INSERT
8
0
2
EPAD
10
-0.170561
20
0.180715
41
0.019685
42
0.019685
0
CIRCLE
8
0
10
-0.170561
20
0.180715
40
0.010000
0
INSERT
8
0
2
EPAD
10
-0.130876
20
0.180715
41
0.019685
42
0.019685
0
CIRCLE
8
0
10
-0.130876
20
0.180715
40
0.010000
0
INSERT
8
0
2
EPAD
10
-0.091191
20
0.180715
41
0.019685
42
0.019685
0
CIRCLE
8
0
10
-0.091191
20
0.180715
40
0.010000
0
INSERT
8
0
2
EPAD
10
-0.051506
20
0.180715
41
0.019685
42
0.019685
0
CIRCLE
8
0
10
-0.051506
20
0.180715
40
0.010000
0
INSERT
8
0
2
EPAD
10
-0.011821
20
0.180715
41
0.019685
42
0.019685
0
CIRCLE
8
0
10
-0.011821
20
0.180715
40
0.010000
0
INSERT
8
0
2
EPAD
10
-0.230089
20
0.215083
41
0.019685
42
0.019685
0
CIRCLE
8
0
10
-0.230089
20
0.215083
40
0.010000
0
INSERT
8
0
2
EPAD
10
-0.190404
20
0.215083
41
0.019685
42
0.019685
0
CIRCLE
8
0
10
-0.190404
20
0.215083
40
0.010000
0
INSERT
8
0
2
EPAD
10
-0.150719
20
0.215083
41
0.019685
42
0.019685
0
CIRCLE
8
0
10
-0.150719
20
0.215083
40
0.010000
0
INSERT
8
0
2
EPAD
10
-0.111033
20
0.215083
41
0.019685
42
0.019685
0
CIRCLE
8
0
10
-0.111033
20
0.215083
40
0.010000
0
INSERT
8
0
2
EPAD
10
-0.071348
20
0.215083
41
0.019685
42
0.019685
0
CIRCLE
8
0
10
-0.071348
20
0.215083
40
0.010000
0
INSERT
8
0
2
EPAD
10
-0.031663
20
0.215083
41
0.019685
42
0.019685
0
CIRCLE
8
0
10
-0.031663
20
0.215083
40
0.010000
0
INSERT
8
0
2
EPAD
10
0.008022
20
0.215083
41
0.019685
42
0.019685
0
CIRCLE
8
0
10
0.008022
20
0.215083
40
0.010000
0
INSERT
8
0
2
EPAD
10
-0.850055
20
0.329083
41
0.019685
42
0.019685
0
CIRCLE
8
0
10
-0.850055
20
0.329083
40
0.010000
0
INSERT
8
0
2
EPAD
10
-0.830213
20
0.363451
41
0.019685
42
0.019685
0
CIRCLE
8
0
10
-0.830213
20
0.363451
40
0.010000
0
INSERT
8
0
2
EPAD
10
-0.790528
20
0.363451
41
0.019685
42
0.019685
0
CIRCLE
8
0
10
-0.790528
20
0.363451
40
0.010000
0
INSERT
8
0
2
EPAD
10
-0.850055
20
0.397819
41
0.019685
42
0.019685
0
CIRCLE
8
0
10
-0.850055
20
0.397819
40
0.010000
0
INSERT
8
0
2
EPAD
10
-0.810370
20
0.397819
41
0.019685
42
0.019685
0
CIRCLE
8
0
10
-0.810370
20
0.397819
40
0.010000
0
INSERT
8
0
2
EPAD
10
-0.770685
20
0.397819
41
0.019685
42
0.019685
0
CIRCLE
8
0
10
-0.770685
20
0.397819
40
0.010000
0
INSERT
8
0
2
EPAD
10
-0.869898
20
0.432187
41
0.019685
42
0.019685
0
CIRCLE
8
0
10
-0.869898
20
0.432187
40
0.010000
0
INSERT
8
0
2
EPAD
10
-0.830213
20
0.432187
41
0.019685
42
0.019685
0
CIRCLE
8
0
10
-0.830213
20
0.432187
40
0.010000
0
INSERT
8
0
2
EPAD
10
-0.790528
20
0.432187
41
0.019685
42
0.019685
0
CIRCLE
8
0
10
-0.790528
20
0.432187
40
0.010000
0
INSERT
8
0
2
EPAD
10
-0.750843
20
0.432187
41
0.019685
42
0.019685
0
CIRCLE
8
0
10
-0.750843
20
0.432187
40
0.010000
0
INSERT
8
0
2
EPAD
10
-0.810370
20
0.466556
41
0.019685
42
0.019685
0
CIRCLE
8
0
10
-0.810370
20
0.466556
40
0.010000
0
INSERT
8
0
2
EPAD
10
-0.770685
20
0.466556
41
0.019685
42
0.019685
0
CIRCLE
8
0
10
-0.770685
20
0.466556
40
0.010000
0
INSERT
8
0
2
EPAD
10
-0.731000
20
0.466556
41
0.019685
42
0.019685
0
CIRCLE
8
0
10
-0.731000
20
0.466556
40
0.010000
0
INSERT
8
0
2
EPAD
10
-0.691315
20
0.466556
41
0.019685
42
0.019685
0
CIRCLE
8
0
10
-0.691315
20
0.466556
40
0.010000
0
INSERT
8
0
2
EPAD
10
-0.750843
20
0.500924
41
0.019685
42
0.019685
0
CIRCLE
8
0
10
-0.750843
20
0.500924
40
0.010000
0
INSERT
8
0
2
EPAD
10
-0.700870
20
0.615000
41
0.019685
42
0.019685
0
CIRCLE
8
0
10
-0.700870
20
0.615000
40
0.010000
0
INSERT
8
0
2
EPAD
10
-0.661185
20
0.615000
41
0.019685
42
0.019685
0
CIRCLE
8
0
10
-0.661185
20
0.615000
40
0.010000
0
INSERT
8
0
2
EPAD
10
-0.621500
20
0.615000
41
0.019685
42
0.019685
0
CIRCLE
8
0
10
-0.621500
20
0.615000
40
0.010000
0
INSERT
8
0
2
EPAD
10
-0.681028
20
0.649368
41
0.019685
42
0.019685
0
CIRCLE
8
0
10
-0.681028
20
0.649368
40
0.010000
0
INSERT
8
0
2
EPAD
10
-0.641343
20
0.649368
41
0.019685
42
0.019685
0
CIRCLE
8
0
10
-0.641343
20
0.649368
40
0.010000
0
INSERT
8
0
2
EPAD
10
-0.602619
20
0.342017
41
0.019685
42
0.019685
0
CIRCLE
8
0
10
-0.602619
20
0.342017
40
0.010000
0
INSERT
8
0
2
EPAD
10
-0.582776
20
0.376385
41
0.019685
42
0.019685
0
CIRCLE
8
0
10
-0.582776
20
0.376385
40
0.010000
0
INSERT
8
0
2
EPAD
10
-0.562933
20
0.410753
41
0.019685
42
0.019685
0
CIRCLE
8
0
10
-0.562933
20
0.410753
40
0.010000
0
INSERT
8
0
2
EPAD
10
-0.503406
20
0.445121
41
0.019685
42
0.019685
0
CIRCLE
8
0
10
-0.503406
20
0.445121
40
0.010000
0
INSERT
8
0
2
EPAD
10
-0.466721
20
0.615330
41
0.019685
42
0.019685
0
CIRCLE
8
0
10
-0.466721
20
0.615330
40
0.010000
0
INSERT
8
0
2
EPAD
10
-0.427036
20
0.615330
41
0.019685
42
0.019685
0
CIRCLE
8
0
10
-0.427036
20
0.615330
40
0.010000
0
INSERT
8
0
2
EPAD
10
-0.486563
20
0.649698
41
0.019685
42
0.019685
0
CIRCLE
8
0
10
-0.486563
20
0.649698
40
0.010000
0
INSERT
8
0
2
EPAD
10
-0.446878
20
0.649698
41
0.019685
42
0.019685
0
CIRCLE
8
0
10
-0.446878
20
0.649698
40
0.010000
0
INSERT
8
0
2
EPAD
10
-0.944268
20
-0.314107
41
0.019685
42
0.019685
0
CIRCLE
8
0
10
-0.944268
20
-0.314107
40
0.010000
0
INSERT
8
0
2
EPAD
10
-0.894583
20
-0.314107
41
0.019685
42
0.019685
0
CIRCLE
8
0
10
-0.894583
20
-0.314107
40
0.010000
0
INSERT
8
0
2
EPAD
10
-0.919425
20
-0.271079
41
0.019685
42
0.019685
0
CIRCLE
8
0
10
-0.919425
20
-0.271079
40
0.010000
0
INSERT
8
0
2
EPAD
10
-0.149307
20
-0.228050
41
0.019685
42
0.019685
0
CIRCLE
8
0
10
-0.149307
20
-0.228050
40
0.010000
0
INSERT
8
0
2
EPAD
10
-0.099622
20
-0.228050
41
0.019685
42
0.019685
0
CIRCLE
8
0
10
-0.099622
20
-0.228050
40
0.010000
0
INSERT
8
0
2
EPAD
10
-0.049937
20
-0.228050
41
0.019685
42
0.019685
0
CIRCLE
8
0
10
-0.049937
20
-0.228050
40
0.010000
0
INSERT
8
0
2
EPAD
10
-0.000252
20
-0.228050
41
0.019685
42
0.019685
0
CIRCLE
8
0
10
-0.000252
20
-0.228050
40
0.010000
0
INSERT
8
0
2
EPAD
10
0.148803
20
-0.228050
41
0.019685
42
0.019685
0
CIRCLE
8
0
10
0.148803
20
-0.228050
40
0.010000
0
INSERT
8
0
2
EPAD
10
0.198488
20
-0.228050
41
0.019685
42
0.019685
0
CIRCLE
8
0
10
0.198488
20
-0.228050
40
0.010000
0
INSERT
8
0
2
EPAD
10
0.248173
20
-0.228050
41
0.019685
42
0.019685
0
CIRCLE
8
0
10
0.248173
20
-0.228050
40
0.010000
0
INSERT
8
0
2
EPAD
10
0.297858
20
-0.228050
41
0.019685
42
0.019685
0
CIRCLE
8
0
10
0.297858
20
-0.228050
40
0.010000
0
INSERT
8
0
2
EPAD
10
-0.919425
20
-0.185022
41
0.019685
42
0.019685
0
CIRCLE
8
0
10
-0.919425
20
-0.185022
40
0.010000
0
INSERT
8
0
2
EPAD
10
-0.174150
20
-0.185022
41
0.019685
42
0.019685
0
CIRCLE
8
0
10
-0.174150
20
-0.185022
40
0.010000
0
INSERT
8
0
2
EPAD
10
-0.124465
20
-0.185022
41
0.019685
42
0.019685
0
CIRCLE
8
0
10
-0.124465
20
-0.185022
40
0.010000
0
INSERT
8
0
2
EPAD
10
-0.074780
20
-0.185022
41
0.019685
42
0.019685
0
CIRCLE
8
0
10
-0.074780
20
-0.185022
40
0.010000
0
INSERT
8
0
2
EPAD
10
-0.025094
20
-0.185022
41
0.019685
42
0.019685
0
CIRCLE
8
0
10
-0.025094
20
-0.185022
40
0.010000
0
INSERT
8
0
2
EPAD
10
0.173646
20
-0.185022
41
0.019685
42
0.019685
0
CIRCLE
8
0
10
0.173646
20
-0.185022
40
0.010000
0
INSERT
8
0
2
EPAD
10
0.223331
20
-0.185022
41
0.019685
42
0.019685
0
CIRCLE
8
0
10
0.223331
20
-0.185022
40
0.010000
0
INSERT
8
0
2
EPAD
10
0.273016
20
-0.185022
41
0.019685
42
0.019685
0
CIRCLE
8
0
10
0.273016
20
-0.185022
40
0.010000
0
INSERT
8
0
2
EPAD
10
-0.149307
20
-0.141994
41
0.019685
42
0.019685
0
CIRCLE
8
0
10
-0.149307
20
-0.141994
40
0.010000
0
INSERT
8
0
2
EPAD
10
-0.099622
20
-0.141994
41
0.019685
42
0.019685
0
CIRCLE
8
0
10
-0.099622
20
-0.141994
40
0.010000
0
INSERT
8
0
2
EPAD
10
-0.049937
20
-0.141994
41
0.019685
42
0.019685
0
CIRCLE
8
0
10
-0.049937
20
-0.141994
40
0.010000
0
INSERT
8
0
2
EPAD
10
-0.000252
20
-0.141994
41
0.019685
42
0.019685
0
CIRCLE
8
0
10
-0.000252
20
-0.141994
40
0.010000
0
INSERT
8
0
2
EPAD
10
0.148803
20
-0.141994
41
0.019685
42
0.019685
0
CIRCLE
8
0
10
0.148803
20
-0.141994
40
0.010000
0
INSERT
8
0
2
EPAD
10
0.198488
20
-0.141994
41
0.019685
42
0.019685
0
CIRCLE
8
0
10
0.198488
20
-0.141994
40
0.010000
0
INSERT
8
0
2
EPAD
10
0.248173
20
-0.141994
41
0.019685
42
0.019685
0
CIRCLE
8
0
10
0.248173
20
-0.141994
40
0.010000
0
INSERT
8
0
2
EPAD
10
-0.919425
20
-0.098965
41
0.019685
42
0.019685
0
CIRCLE
8
0
10
-0.919425
20
-0.098965
40
0.010000
0
INSERT
8
0
2
EPAD
10
-0.174150
20
-0.098965
41
0.019685
42
0.019685
0
CIRCLE
8
0
10
-0.174150
20
-0.098965
40
0.010000
0
INSERT
8
0
2
EPAD
10
-0.124465
20
-0.098965
41
0.019685
42
0.019685
0
CIRCLE
8
0
10
-0.124465
20
-0.098965
40
0.010000
0
INSERT
8
0
2
EPAD
10
-0.074780
20
-0.098965
41
0.019685
42
0.019685
0
CIRCLE
8
0
10
-0.074780
20
-0.098965
40
0.010000
0
INSERT
8
0
2
EPAD
10
-0.025094
20
-0.098965
41
0.019685
42
0.019685
0
CIRCLE
8
0
10
-0.025094
20
-0.098965
40
0.010000
0
INSERT
8
0
2
EPAD
10
0.024591
20
-0.098965
41
0.019685
42
0.019685
0
CIRCLE
8
0
10
0.024591
20
-0.098965
40
0.010000
0
INSERT
8
0
2
EPAD
10
0.074276
20
-0.098965
41
0.019685
42
0.019685
0
CIRCLE
8
0
10
0.074276
20
-0.098965
40
0.010000
0
INSERT
8
0
2
EPAD
10
0.123961
20
-0.098965
41
0.019685
42
0.019685
0
CIRCLE
8
0
10
0.123961
20
-0.098965
40
0.010000
0
INSERT
8
0
2
EPAD
10
0.173646
20
-0.098965
41
0.019685
42
0.019685
0
CIRCLE
8
0
10
0.173646
20
-0.098965
40
0.010000
0
INSERT
8
0
2
EPAD
10
0.223331
20
-0.098965
41
0.019685
42
0.019685
0
CIRCLE
8
0
10
0.223331
20
-0.098965
40
0.010000
0
INSERT
8
0
2
EPAD
10
0.273016
20
-0.098965
41
0.019685
42
0.019685
0
CIRCLE
8
0
10
0.273016
20
-0.098965
40
0.010000
0
INSERT
8
0
2
EPAD
10
-0.149307
20
-0.055937
41
0.019685
42
0.019685
0
CIRCLE
8
0
10
-0.149307
20
-0.055937
40
0.010000
0
INSERT
8
0
2
EPAD
10
-0.099622
20
-0.055937
41
0.019685
42
0.019685
0
CIRCLE
8
0
10
-0.099622
20
-0.055937
40
0.010000
0
INSERT
8
0
2
EPAD
10
-0.049937
20
-0.055937
41
0.019685
42
0.019685
0
CIRCLE
8
0
10
-0.049937
20
-0.055937
40
0.010000
0
INSERT
8
0
2
EPAD
10
-0.000252
20
-0.055937
41
0.019685
42
0.019685
0
CIRCLE
8
0
10
-0.000252
20
-0.055937
40
0.010000
0
INSERT
8
0
2
EPAD
10
0.049433
20
-0.055937
41
0.019685
42
0.019685
0
CIRCLE
8
0
10
0.049433
20
-0.055937
40
0.010000
0
INSERT
8
0
2
EPAD
10
0.099118
20
-0.055937
41
0.019685
42
0.019685
0
CIRCLE
8
0
10
0.099118
20
-0.055937
40
0.010000
0
INSERT
8
0
2
EPAD
10
0.148803
20
-0.055937
41
0.019685
42
0.019685
0
CIRCLE
8
0
10
0.148803
20
-0.055937
40
0.010000
0
INSERT
8
0
2
EPAD
10
0.198488
20
-0.055937
41
0.019685
42
0.019685
0
CIRCLE
8
0
10
0.198488
20
-0.055937
40
0.010000
0
INSERT
8
0
2
EPAD
10
0.248173
20
-0.055937
41
0.019685
42
0.019685
0
CIRCLE
8
0
10
0.248173
20
-0.055937
40
0.010000
0
INSERT
8
0
2
EPAD
10
0.297858
20
-0.055937
41
0.019685
42
0.019685
0
CIRCLE
8
0
10
0.297858
20
-0.055937
40
0.010000
0
INSERT
8
0
2
EPAD
10
-0.919425
20
-0.012909
41
0.019685
42
0.019685
0
CIRCLE
8
0
10
-0.919425
20
-0.012909
40
0.010000
0
INSERT
8
0
2
EPAD
10
-0.571630
20
0.073148
41
0.019685
42
0.019685
0
CIRCLE
8
0
10
-0.571630
20
0.073148
40
0.010000
0
INSERT
8
0
2
EPAD
10
-0.521945
20
0.073148
41
0.019685
42
0.019685
0
CIRCLE
8
0
10
-0.521945
20
0.073148
40
0.010000
0
INSERT
8
0
2
EPAD
10
-0.521945
20
0.159205
41
0.019685
42
0.019685
0
CIRCLE
8
0
10
-0.521945
20
0.159205
40
0.010000
0
INSERT
8
0
2
EPAD
10
-0.596472
20
0.202233
41
0.019685
42
0.019685
0
CIRCLE
8
0
10
-0.596472
20
0.202233
40
0.010000
0
INSERT
8
0
2
EPAD
10
-0.546787
20
0.202233
41
0.019685
42
0.019685
0
CIRCLE
8
0
10
-0.546787
20
0.202233
40
0.010000
0
INSERT
8
0
2
EPAD
10
-0.571630
20
0.245261
41
0.019685
42
0.019685
0
CIRCLE
8
0
10
-0.571630
20
0.245261
40
0.010000
0
INSERT
8
0
2
EPAD
10
-0.521945
20
0.245261
41
0.019685
42
0.019685
0
CIRCLE
8
0
10
-0.521945
20
0.245261
40
0.010000
0
INSERT
8
0
2
EPAD
10
-0.497102
20
0.288290
41
0.019685
42
0.019685
0
CIRCLE
8
0
10
-0.497102
20
0.288290
40
0.010000
0
INSERT
8
0
2
EPAD
10
-0.422575
20
0.331318
41
0.019685
42
0.019685
0
CIRCLE
8
0
10
-0.422575
20
0.331318
40
0.010000
0
INSERT
8
0
2
EPAD
10
-0.372890
20
0.331318
41
0.019685
42
0.019685
0
CIRCLE
8
0
10
-0.372890
20
0.331318
40
0.010000
0
INSERT
8
0
2
EPAD
10
-0.323205
20
0.331318
41
0.019685
42
0.019685
0
CIRCLE
8
0
10
-0.323205
20
0.331318
40
0.010000
0
INSERT
8
0
2
EPAD
10
-0.273520
20
0.331318
41
0.019685
42
0.019685
0
CIRCLE
8
0
10
-0.273520
20
0.331318
40
0.010000
0
INSERT
8
0
2
EPAD
10
-0.223835
20
0.331318
41
0.019685
42
0.019685
0
CIRCLE
8
0
10
-0.223835
20
0.331318
40
0.010000
0
INSERT
8
0
2
EPAD
10
-0.348047
20
0.374346
41
0.019685
42
0.019685
0
CIRCLE
8
0
10
-0.348047
20
0.374346
40
0.010000
0
INSERT
8
0
2
EPAD
10
-0.298362
20
0.374346
41
0.019685
42
0.019685
0
CIRCLE
8
0
10
-0.298362
20
0.374346
40
0.010000
0
INSERT
8
0
2
EPAD
10
-0.248677
20
0.374346
41
0.019685
42
0.019685
0
CIRCLE
8
0
10
-0.248677
20
0.374346
40
0.010000
0
INSERT
8
0
2
EPAD
10
-0.273520
20
0.417375
41
0.019685
42
0.019685
0
CIRCLE
8
0
10
-0.273520
20
0.417375
40
0.010000
0
INSERT
8
0
2
EPAD
10
-0.223835
20
0.417375
41
0.019685
42
0.019685
0
CIRCLE
8
0
10
-0.223835
20
0.417375
40
0.010000
0
INSERT
8
0
2
EPAD
10
-0.298362
20
0.460403
41
0.019685
42
0.019685
0
CIRCLE
8
0
10
-0.298362
20
0.460403
40
0.010000
0
INSERT
8
0
2
EPAD
10
-0.248677
20
0.460403
41
0.019685
42
0.019685
0
CIRCLE
8
0
10
-0.248677
20
0.460403
40
0.010000
0
INSERT
8
0
2
EPAD
10
-0.298362
20
0.632517
41
0.019685
42
0.019685
0
CIRCLE
8
0
10
-0.298362
20
0.632517
40
0.010000
0
INSERT
8
0
2
EPAD
10
-0.248677
20
0.632517
41
0.019685
42
0.019685
0
CIRCLE
8
0
10
-0.248677
20
0.632517
40
0.010000
0
INSERT
8
0
2
EPAD
10
-0.271520
20
0.651045
41
0.019685
42
0.019685
0
CIRCLE
8
0
10
-0.271520
20
0.651045
40
0.010000
0
INSERT
8
0
2
EPAD
10
-0.221835
20
0.651045
41
0.019685
42
0.019685
0
CIRCLE
8
0
10
-0.221835
20
0.651045
40
0.010000
0
INSERT
8
0
2
EPAD
10
0.302610
20
0.218909
41
0.019685
42
0.019685
0
CIRCLE
8
0
10
0.302610
20
0.218909
40
0.010000
0
INSERT
8
0
2
EPAD
10
0.243083
20
0.253277
41
0.019685
42
0.019685
0
CIRCLE
8
0
10
0.243083
20
0.253277
40
0.010000
0
INSERT
8
0
2
EPAD
10
0.282768
20
0.253277
41
0.019685
42
0.019685
0
CIRCLE
8
0
10
0.282768
20
0.253277
40
0.010000
0
INSERT
8
0
2
EPAD
10
0.223240
20
0.287645
41
0.019685
42
0.019685
0
CIRCLE
8
0
10
0.223240
20
0.287645
40
0.010000
0
INSERT
8
0
2
EPAD
10
0.262925
20
0.287645
41
0.019685
42
0.019685
0
CIRCLE
8
0
10
0.262925
20
0.287645
40
0.010000
0
INSERT
8
0
2
EPAD
10
0.163713
20
0.322013
41
0.019685
42
0.019685
0
CIRCLE
8
0
10
0.163713
20
0.322013
40
0.010000
0
INSERT
8
0
2
EPAD
10
0.203398
20
0.322013
41
0.019685
42
0.019685
0
CIRCLE
8
0
10
0.203398
20
0.322013
40
0.010000
0
INSERT
8
0
2
EPAD
10
0.143870
20
0.356381
41
0.019685
42
0.019685
0
CIRCLE
8
0
10
0.143870
20
0.356381
40
0.010000
0
INSERT
8
0
2
EPAD
10
0.183555
20
0.356381
41
0.019685
42
0.019685
0
CIRCLE
8
0
10
0.183555
20
0.356381
40
0.010000
0
INSERT
8
0
2
EPAD
10
0.124028
20
0.390749
41
0.019685
42
0.019685
0
CIRCLE
8
0
10
0.124028
20
0.390749
40
0.010000
0
INSERT
8
0
2
EPAD
10
0.163713
20
0.390749
41
0.019685
42
0.019685
0
CIRCLE
8
0
10
0.163713
20
0.390749
40
0.010000
0
INSERT
8
0
2
EPAD
10
0.104185
20
0.425117
41
0.019685
42
0.019685
0
CIRCLE
8
0
10
0.104185
20
0.425117
40
0.010000
0
INSERT
8
0
2
EPAD
10
0.143870
20
0.425117
41
0.019685
42
0.019685
0
CIRCLE
8
0
10
0.143870
20
0.425117
40
0.010000
0
INSERT
8
0
2
EPAD
10
0.183555
20
0.425117
41
0.019685
42
0.019685
0
CIRCLE
8
0
10
0.183555
20
0.425117
40
0.010000
0
INSERT
8
0
2
EPAD
10
0.084343
20
0.459485
41
0.019685
42
0.019685
0
CIRCLE
8
0
10
0.084343
20
0.459485
40
0.010000
0
INSERT
8
0
2
EPAD
10
0.124028
20
0.459485
41
0.019685
42
0.019685
0
CIRCLE
8
0
10
0.124028
20
0.459485
40
0.010000
0
INSERT
8
0
2
EPAD
10
0.163713
20
0.459485
41
0.019685
42
0.019685
0
CIRCLE
8
0
10
0.163713
20
0.459485
40
0.010000
0
INSERT
8
0
2
EPAD
10
0.082343
20
0.577458
41
0.019685
42
0.019685
0
CIRCLE
8
0
10
0.082343
20
0.577458
40
0.010000
0
INSERT
8
0
2
EPAD
10
0.102185
20
0.611826
41
0.019685
42
0.019685
0
CIRCLE
8
0
10
0.102185
20
0.611826
40
0.010000
0
INSERT
8
0
2
EPAD
10
0.141870
20
0.611826
41
0.019685
42
0.019685
0
CIRCLE
8
0
10
0.141870
20
0.611826
40
0.010000
0
INSERT
8
0
2
EPAD
10
0.181555
20
0.611826
41
0.019685
42
0.019685
0
CIRCLE
8
0
10
0.181555
20
0.611826
40
0.010000
0
INSERT
8
0
2
EPAD
10
0.082343
20
0.646194
41
0.019685
42
0.019685
0
CIRCLE
8
0
10
0.082343
20
0.646194
40
0.010000
0
INSERT
8
0
2
EPAD
10
0.122028
20
0.646194
41
0.019685
42
0.019685
0
CIRCLE
8
0
10
0.122028
20
0.646194
40
0.010000
0
INSERT
8
0
2
EPAD
10
0.161713
20
0.646194
41
0.019685
42
0.019685
0
CIRCLE
8
0
10
0.161713
20
0.646194
40
0.010000
0
INSERT
8
0
2
EPAD
10
0.443240
20
0.258994
41
0.019685
42
0.019685
0
CIRCLE
8
0
10
0.443240
20
0.258994
40
0.010000
0
INSERT
8
0
2
EPAD
10
0.482925
20
0.258994
41
0.019685
42
0.019685
0
CIRCLE
8
0
10
0.482925
20
0.258994
40
0.010000
0
INSERT
8
0
2
EPAD
10
0.522610
20
0.258994
41
0.019685
42
0.019685
0
CIRCLE
8
0
10
0.522610
20
0.258994
40
0.010000
0
INSERT
8
0
2
EPAD
10
0.562295
20
0.258994
41
0.019685
42
0.019685
0
CIRCLE
8
0
10
0.562295
20
0.258994
40
0.010000
0
INSERT
8
0
2
EPAD
10
0.601980
20
0.258994
41
0.019685
42
0.019685
0
CIRCLE
8
0
10
0.601980
20
0.258994
40
0.010000
0
INSERT
8
0
2
EPAD
10
0.463083
20
0.293362
41
0.019685
42
0.019685
0
CIRCLE
8
0
10
0.463083
20
0.293362
40
0.010000
0
INSERT
8
0
2
EPAD
10
0.502768
20
0.293362
41
0.019685
42
0.019685
0
CIRCLE
8
0
10
0.502768
20
0.293362
40
0.010000
0
INSERT
8
0
2
EPAD
10
0.542453
20
0.293362
41
0.019685
42
0.019685
0
CIRCLE
8
0
10
0.542453
20
0.293362
40
0.010000
0
INSERT
8
0
2
EPAD
10
0.582138
20
0.293362
41
0.019685
42
0.019685
0
CIRCLE
8
0
10
0.582138
20
0.293362
40
0.010000
0
INSERT
8
0
2
EPAD
10
0.621823
20
0.293362
41
0.019685
42
0.019685
0
CIRCLE
8
0
10
0.621823
20
0.293362
40
0.010000
0
INSERT
8
0
2
EPAD
10
0.403555
20
0.327730
41
0.019685
42
0.019685
0
CIRCLE
8
0
10
0.403555
20
0.327730
40
0.010000
0
INSERT
8
0
2
EPAD
10
0.443240
20
0.327730
41
0.019685
42
0.019685
0
CIRCLE
8
0
10
0.443240
20
0.327730
40
0.010000
0
INSERT
8
0
2
EPAD
10
0.482925
20
0.327730
41
0.019685
42
0.019685
0
CIRCLE
8
0
10
0.482925
20
0.327730
40
0.010000
0
INSERT
8
0
2
EPAD
10
0.522610
20
0.327730
41
0.019685
42
0.019685
0
CIRCLE
8
0
10
0.522610
20
0.327730
40
0.010000
0
INSERT
8
0
2
EPAD
10
0.562295
20
0.327730
41
0.019685
42
0.019685
0
CIRCLE
8
0
10
0.562295
20
0.327730
40
0.010000
0
INSERT
8
0
2
EPAD
10
0.601980
20
0.327730
41
0.019685
42
0.019685
0
CIRCLE
8
0
10
0.601980
20
0.327730
40
0.010000
0
INSERT
8
0
2
EPAD
10
0.383713
20
0.362098
41
0.019685
42
0.019685
0
CIRCLE
8
0
10
0.383713
20
0.362098
40
0.010000
0
INSERT
8
0
2
EPAD
10
0.423398
20
0.362098
41
0.019685
42
0.019685
0
CIRCLE
8
0
10
0.423398
20
0.362098
40
0.010000
0
INSERT
8
0
2
EPAD
10
0.463083
20
0.362098
41
0.019685
42
0.019685
0
CIRCLE
8
0
10
0.463083
20
0.362098
40
0.010000
0
INSERT
8
0
2
EPAD
10
0.502768
20
0.362098
41
0.019685
42
0.019685
0
CIRCLE
8
0
10
0.502768
20
0.362098
40
0.010000
0
INSERT
8
0
2
EPAD
10
0.542453
20
0.362098
41
0.019685
42
0.019685
0
CIRCLE
8
0
10
0.542453
20
0.362098
40
0.010000
0
INSERT
8
0
2
EPAD
10
0.582138
20
0.362098
41
0.019685
42
0.019685
0
CIRCLE
8
0
10
0.582138
20
0.362098
40
0.010000
0
INSERT
8
0
2
EPAD
10
0.621823
20
0.362098
41
0.019685
42
0.019685
0
CIRCLE
8
0
10
0.621823
20
0.362098
40
0.010000
0
INSERT
8
0
2
EPAD
10
0.363870
20
0.396467
41
0.019685
42
0.019685
0
CIRCLE
8
0
10
0.363870
20
0.396467
40
0.010000
0
INSERT
8
0
2
EPAD
10
0.403555
20
0.396467
41
0.019685
42
0.019685
0
CIRCLE
8
0
10
0.403555
20
0.396467
40
0.010000
0
INSERT
8
0
2
EPAD
10
0.443240
20
0.396467
41
0.019685
42
0.019685
0
CIRCLE
8
0
10
0.443240
20
0.396467
40
0.010000
0
INSERT
8
0
2
EPAD
10
0.482925
20
0.396467
41
0.019685
42
0.019685
0
CIRCLE
8
0
10
0.482925
20
0.396467
40
0.010000
0
INSERT
8
0
2
EPAD
10
0.522610
20
0.396467
41
0.019685
42
0.019685
0
CIRCLE
8
0
10
0.522610
20
0.396467
40
0.010000
0
INSERT
8
0
2
EPAD
10
0.562295
20
0.396467
41
0.019685
42
0.019685
0
CIRCLE
8
0
10
0.562295
20
0.396467
40
0.010000
0
INSERT
8
0
2
EPAD
10
0.601980
20
0.396467
41
0.019685
42
0.019685
0
CIRCLE
8
0
10
0.601980
20
0.396467
40
0.010000
0
INSERT
8
0
2
EPAD
10
0.304343
20
0.430835
41
0.019685
42
0.019685
0
CIRCLE
8
0
10
0.304343
20
0.430835
40
0.010000
0
INSERT
8
0
2
EPAD
10
0.344028
20
0.430835
41
0.019685
42
0.019685
0
CIRCLE
8
0
10
0.344028
20
0.430835
40
0.010000
0
INSERT
8
0
2
EPAD
10
0.383713
20
0.430835
41
0.019685
42
0.019685
0
CIRCLE
8
0
10
0.383713
20
0.430835
40
0.010000
0
INSERT
8
0
2
EPAD
10
0.423398
20
0.430835
41
0.019685
42
0.019685
0
CIRCLE
8
0
10
0.423398
20
0.430835
40
0.010000
0
INSERT
8
0
2
EPAD
10
0.463083
20
0.430835
41
0.019685
42
0.019685
0
CIRCLE
8
0
10
0.463083
20
0.430835
40
0.010000
0
INSERT
8
0
2
EPAD
10
0.502768
20
0.430835
41
0.019685
42
0.019685
0
CIRCLE
8
0
10
0.502768
20
0.430835
40
0.010000
0
INSERT
8
0
2
EPAD
10
0.542453
20
0.430835
41
0.019685
42
0.019685
0
CIRCLE
8
0
10
0.542453
20
0.430835
40
0.010000
0
INSERT
8
0
2
EPAD
10
0.582138
20
0.430835
41
0.019685
42
0.019685
0
CIRCLE
8
0
10
0.582138
20
0.430835
40
0.010000
0
INSERT
8
0
2
EPAD
10
0.621823
20
0.430835
41
0.019685
42
0.019685
0
CIRCLE
8
0
10
0.621823
20
0.430835
40
0.010000
0
INSERT
8
0
2
EPAD
10
0.403555
20
0.465203
41
0.019685
42
0.019685
0
CIRCLE
8
0
10
0.403555
20
0.465203
40
0.010000
0
INSERT
8
0
2
EPAD
10
0.443240
20
0.465203
41
0.019685
42
0.019685
0
CIRCLE
8
0
10
0.443240
20
0.465203
40
0.010000
0
INSERT
8
0
2
EPAD
10
0.482925
20
0.465203
41
0.019685
42
0.019685
0
CIRCLE
8
0
10
0.482925
20
0.465203
40
0.010000
0
INSERT
8
0
2
EPAD
10
0.423398
20
0.499571
41
0.019685
42
0.019685
0
CIRCLE
8
0
10
0.423398
20
0.499571
40
0.010000
0
INSERT
8
0
2
EPAD
10
0.304843
20
0.611043
41
0.019685
42
0.019685
0
CIRCLE
8
0
10
0.304843
20
0.611043
40
0.010000
0
INSERT
8
0
2
EPAD
10
0.344528
20
0.611043
41
0.019685
42
0.019685
0
CIRCLE
8
0
10
0.344528
20
0.611043
40
0.010000
0
INSERT
8
0
2
EPAD
10
0.384213
20
0.611043
41
0.019685
42
0.019685
0
CIRCLE
8
0
10
0.384213
20
0.611043
40
0.010000
0
INSERT
8
0
2
EPAD
10
0.324685
20
0.645411
41
0.019685
42
0.019685
0
CIRCLE
8
0
10
0.324685
20
0.645411
40
0.010000
0
INSERT
8
0
2
EPAD
10
0.364370
20
0.645411
41
0.019685
42
0.019685
0
CIRCLE
8
0
10
0.364370
20
0.645411
40
0.010000
0
INSERT
8
0
2
EPAD
10
0.404055
20
0.645411
41
0.019685
42
0.019685
0
CIRCLE
8
0
10
0.404055
20
0.645411
40
0.010000
0
INSERT
8
0
2
EPAD
10
-0.853446
20
0.002379
41
0.019685
42
0.019685
0
CIRCLE
8
0
10
-0.853446
20
0.002379
40
0.010000
0
INSERT
8
0
2
EPAD
10
-0.853110
20
-0.046240
41
0.019685
42
0.019685
0
CIRCLE
8
0
10
-0.853110
20
-0.046240
40
0.010000
0
INSERT
8
0
2
EPAD
10
-0.828110
20
-0.046240
41
0.019685
42
0.019685
0
CIRCLE
8
0
10
-0.828110
20
-0.046240
40
0.010000
0
INSERT
8
0
2
EPAD
10
-0.803110
20
-0.046240
41
0.019685
42
0.019685
0
CIRCLE
8
0
10
-0.803110
20
-0.046240
40
0.010000
0
INSERT
8
0
2
EPAD
10
-0.776711
20
-0.046372
41
0.019685
42
0.019685
0
CIRCLE
8
0
10
-0.776711
20
-0.046372
40
0.010000
0
INSERT
8
0
2
EPAD
10
-0.827608
20
-0.020184
41
0.019685
42
0.019685
0
CIRCLE
8
0
10
-0.827608
20
-0.020184
40
0.010000
0
INSERT
8
0
2
EPAD
10
-0.853796
20
-0.022930
41
0.019685
42
0.019685
0
CIRCLE
8
0
10
-0.853796
20
-0.022930
40
0.010000
0
INSERT
8
0
2
EPAD
10
0.361890
20
-0.001240
41
0.019685
42
0.019685
0
CIRCLE
8
0
10
0.361890
20
-0.001240
40
0.010000
0
INSERT
8
0
2
EPAD
10
0.361890
20
-0.051240
41
0.019685
42
0.019685
0
CIRCLE
8
0
10
0.361890
20
-0.051240
40
0.010000
0
INSERT
8
0
2
EPAD
10
0.436890
20
-0.051240
41
0.019685
42
0.019685
0
CIRCLE
8
0
10
0.436890
20
-0.051240
40
0.010000
0
INSERT
8
0
2
EPAD
10
0.436890
20
-0.001240
41
0.019685
42
0.019685
0
CIRCLE
8
0
10
0.436890
20
-0.001240
40
0.010000
0
INSERT
8
0
2
EPAD
10
0.403917
20
-0.024454
41
0.019685
42
0.019685
0
CIRCLE
8
0
10
0.403917
20
-0.024454
40
0.010000
0
INSERT
8
0
2
EPAD
10
0.361890
20
-0.026240
41
0.019685
42
0.019685
0
CIRCLE
8
0
10
0.361890
20
-0.026240
40
0.010000
0
INSERT
8
0
2
EPAD
10
0.436890
20
-0.026240
41
0.019685
42
0.019685
0
CIRCLE
8
0
10
0.436890
20
-0.026240
40
0.010000
0
INSERT
8
0
2
EPAD
10
0.486890
20
0.148760
41
0.019685
42
0.019685
0
CIRCLE
8
0
10
0.486890
20
0.148760
40
0.010000
0
INSERT
8
0
2
EPAD
10
0.511890
20
0.123760
41
0.019685
42
0.019685
0
CIRCLE
8
0
10
0.511890
20
0.123760
40
0.010000
0
INSERT
8
0
2
EPAD
10
0.511890
20
0.098760
41
0.019685
42
0.019685
0
CIRCLE
8
0
10
0.511890
20
0.098760
40
0.010000
0
INSERT
8
0
2
EPAD
10
0.478071
20
0.123760
41
0.019685
42
0.019685
0
CIRCLE
8
0
10
0.478071
20
0.123760
40
0.010000
0
INSERT
8
0
2
EPAD
10
0.536890
20
0.098760
41
0.019685
42
0.019685
0
CIRCLE
8
0
10
0.536890
20
0.098760
40
0.010000
0
INSERT
8
0
2
EPAD
10
-0.456654
20
0.540610
41
0.120000
42
0.120000
0
CIRCLE
8
0
10
-0.456654
20
0.540610
40
0.030000
0
INSERT
8
0
2
EPAD
10
-0.656654
20
0.540610
41
0.120000
42
0.120000
0
CIRCLE
8
0
10
-0.656654
20
0.540610
40
0.030000
0
INSERT
8
0
2
EPAD
10
-0.056654
20
0.540610
41
0.120000
42
0.120000
0
CIRCLE
8
0
10
-0.056654
20
0.540610
40
0.030000
0
INSERT
8
0
2
EPAD
10
-0.256654
20
0.540610
41
0.120000
42
0.120000
0
CIRCLE
8
0
10
-0.256654
20
0.540610
40
0.030000
0
INSERT
8
0
2
EPAD
10
-0.885000
20
-0.519232
41
0.122835
42
0.122835
0
CIRCLE
8
0
10
-0.885000
20
-0.519232
40
0.010000
0
INSERT
8
0
2
EPAD
10
0.571693
20
-0.519232
41
0.122835
42
0.122835
0
CIRCLE
8
0
10
0.571693
20
-0.519232
40
0.010000
0
INSERT
8
0
2
EPAD
10
0.571693
20
0.618760
41
0.122835
42
0.122835
0
CIRCLE
8
0
10
0.571693
20
0.618760
40
0.010000
0
INSERT
8
0
2
EPAD
10
-0.885000
20
0.622500
41
0.122835
42
0.122835
0
CIRCLE
8
0
10
-0.885000
20
0.622500
40
0.010000
0
POLYLINE
8
0
66
1
70
1
40
0
41
0
0
VERTEX
8
0
10
-0.524654
20
-0.486000
0
VERTEX
8
0
10
-0.488654
20
-0.486000
0
VERTEX
8
0
10
-0.486200
20
-0.486239
0
VERTEX
8
0
10
-0.483931
20
-0.486926
0
VERTEX
8
0
10
-0.481891
20
-0.488017
0
VERTEX
8
0
10
-0.480122
20
-0.489469
0
VERTEX
8
0
10
-0.478671
20
-0.491237
0
VERTEX
8
0
10
-0.477580
20
-0.493277
0
VERTEX
8
0
10
-0.476893
20
-0.495546
0
VERTEX
8
0
10
-0.476654
20
-0.498000
0
VERTEX
8
0
10
-0.476654
20
-0.574000
0
VERTEX
8
0
10
-0.476893
20
-0.576454
0
VERTEX
8
0
10
-0.477580
20
-0.578723
0
VERTEX
8
0
10
-0.478671
20
-0.580763
0
VERTEX
8
0
10
-0.480122
20
-0.582531
0
VERTEX
8
0
10
-0.481891
20
-0.583983
0
VERTEX
8
0
10
-0.483931
20
-0.585074
0
VERTEX
8
0
10
-0.486200
20
-0.585761
0
VERTEX
8
0
10
-0.488654
20
-0.586000
0
VERTEX
8
0
10
-0.524654
20
-0.586000
0
VERTEX
8
0
10
-0.527107
20
-0.585761
0
VERTEX
8
0
10
-0.529376
20
-0.585074
0
VERTEX
8
0
10
-0.531417
20
-0.583983
0
VERTEX
8
0
10
-0.533185
20
-0.582531
0
VERTEX
8
0
10
-0.534636
20
-0.580763
0
VERTEX
8
0
10
-0.535728
20
-0.578723
0
VERTEX
8
0
10
-0.536415
20
-0.576454
0
VERTEX
8
0
10
-0.536654
20
-0.574000
0
VERTEX
8
0
10
-0.536654
20
-0.498000
0
VERTEX
8
0
10
-0.536415
20
-0.495546
0
VERTEX
8
0
10
-0.535728
20
-0.493277
0
VERTEX
8
0
10
-0.534636
20
-0.491237
0
VERTEX
8
0
10
-0.533185
20
-0.489469
0
VERTEX
8
0
10
-0.531417
20
-0.488017
0
VERTEX
8
0
10
-0.529376
20
-0.486926
0
VERTEX
8
0
10
-0.527107
20
-0.486239
0
VERTEX
8
0
10
-0.524654
20
-0.486000
0
SEQEND
8
0
0
CIRCLE
8
0
10
-0.506654
20
-0.536000
40
0.020000
0
POLYLINE
8
0
66
1
70
1
40
0
41
0
0
VERTEX
8
0
10
-0.424654
20
-0.486000
0
VERTEX
8
0
10
-0.388654
20
-0.486000
0
VERTEX
8
0
10
-0.386200
20
-0.486239
0
VERTEX
8
0
10
-0.383931
20
-0.486926
0
VERTEX
8
0
10
-0.381891
20
-0.488017
0
VERTEX
8
0
10
-0.380122
20
-0.489469
0
VERTEX
8
0
10
-0.378671
20
-0.491237
0
VERTEX
8
0
10
-0.377580
20
-0.493277
0
VERTEX
8
0
10
-0.376893
20
-0.495546
0
VERTEX
8
0
10
-0.376654
20
-0.498000
0
VERTEX
8
0
10
-0.376654
20
-0.574000
0
VERTEX
8
0
10
-0.376893
20
-0.576454
0
VERTEX
8
0
10
-0.377580
20
-0.578723
0
VERTEX
8
0
10
-0.378671
20
-0.580763
0
VERTEX
8
0
10
-0.380122
20
-0.582531
0
VERTEX
8
0
10
-0.381891
20
-0.583983
0
VERTEX
8
0
10
-0.383931
20
-0.585074
0
VERTEX
8
0
10
-0.386200
20
-0.585761
0
VERTEX
8
0
10
-0.388654
20
-0.586000
0
VERTEX
8
0
10
-0.424654
20
-0.586000
0
VERTEX
8
0
10
-0.427107
20
-0.585761
0
VERTEX
8
0
10
-0.429376
20
-0.585074
0
VERTEX
8
0
10
-0.431417
20
-0.583983
0
VERTEX
8
0
10
-0.433185
20
-0.582531
0
VERTEX
8
0
10
-0.434636
20
-0.580763
0
VERTEX
8
0
10
-0.435728
20
-0.578723
0
VERTEX
8
0
10
-0.436415
20
-0.576454
0
VERTEX
8
0
10
-0.436654
20
-0.574000
0
VERTEX
8
0
10
-0.436654
20
-0.498000
0
VERTEX
8
0
10
-0.436415
20
-0.495546
0
VERTEX
8
0
10
-0.435728
20
-0.493277
0
VERTEX
8
0
10
-0.434636
20
-0.491237
0
VERTEX
8
0
10
-0.433185
20
-0.489469
0
VERTEX
8
0
10
-0.431417
20
-0.488017
0
VERTEX
8
0
10
-0.429376
20
-0.486926
0
VERTEX
8
0
10
-0.427107
20
-0.486239
0
VERTEX
8
0
10
-0.424654
20
-0.486000
0
SEQEND
8
0
0
CIRCLE
8
0
10
-0.406654
20
-0.536000
40
0.020000
0
POLYLINE
8
0
66
1
70
1
40
0
41
0
0
VERTEX
8
0
10
-0.324654
20
-0.486000
0
VERTEX
8
0
10
-0.288654
20
-0.486000
0
VERTEX
8
0
10
-0.286200
20
-0.486239
0
VERTEX
8
0
10
-0.283931
20
-0.486926
0
VERTEX
8
0
10
-0.281891
20
-0.488017
0
VERTEX
8
0
10
-0.280122
20
-0.489469
0
VERTEX
8
0
10
-0.278671
20
-0.491237
0
VERTEX
8
0
10
-0.277580
20
-0.493277
0
VERTEX
8
0
10
-0.276893
20
-0.495546
0
VERTEX
8
0
10
-0.276654
20
-0.498000
0
VERTEX
8
0
10
-0.276654
20
-0.574000
0
VERTEX
8
0
10
-0.276893
20
-0.576454
0
VERTEX
8
0
10
-0.277580
20
-0.578723
0
VERTEX
8
0
10
-0.278671
20
-0.580763
0
VERTEX
8
0
10
-0.280122
20
-0.582531
0
VERTEX
8
0
10
-0.281891
20
-0.583983
0
VERTEX
8
0
10
-0.283931
20
-0.585074
0
VERTEX
8
0
10
-0.286200
20
-0.585761
0
VERTEX
8
0
10
-0.288654
20
-0.586000
0
VERTEX
8
0
10
-0.324654
20
-0.586000
0
VERTEX
8
0
10
-0.327107
20
-0.585761
0
VERTEX
8
0
10
-0.329376
20
-0.585074
0
VERTEX
8
0
10
-0.331417
20
-0.583983
0
VERTEX
8
0
10
-0.333185
20
-0.582531
0
VERTEX
8
0
10
-0.334636
20
-0.580763
0
VERTEX
8
0
10
-0.335728
20
-0.578723
0
VERTEX
8
0
10
-0.336415
20
-0.576454
0
VERTEX
8
0
10
-0.336654
20
-0.574000
0
VERTEX
8
0
10
-0.336654
20
-0.498000
0
VERTEX
8
0
10
-0.336415
20
-0.495546
0
VERTEX
8
0
10
-0.335728
20
-0.493277
0
VERTEX
8
0
10
-0.334636
20
-0.491237
0
VERTEX
8
0
10
-0.333185
20
-0.489469
0
VERTEX
8
0
10
-0.331417
20
-0.488017
0
VERTEX
8
0
10
-0.329376
20
-0.486926
0
VERTEX
8
0
10
-0.327107
20
-0.486239
0
VERTEX
8
0
10
-0.324654
20
-0.486000
0
SEQEND
8
0
0
CIRCLE
8
0
10
-0.306654
20
-0.536000
40
0.020000
0
POLYLINE
8
0
66
1
70
1
40
0
41
0
0
VERTEX
8
0
10
-0.224654
20
-0.486000
0
VERTEX
8
0
10
-0.188654
20
-0.486000
0
VERTEX
8
0
10
-0.186200
20
-0.486239
0
VERTEX
8
0
10
-0.183931
20
-0.486926
0
VERTEX
8
0
10
-0.181891
20
-0.488017
0
VERTEX
8
0
10
-0.180122
20
-0.489469
0
VERTEX
8
0
10
-0.178671
20
-0.491237
0
VERTEX
8
0
10
-0.177580
20
-0.493277
0
VERTEX
8
0
10
-0.176893
20
-0.495546
0
VERTEX
8
0
10
-0.176654
20
-0.498000
0
VERTEX
8
0
10
-0.176654
20
-0.574000
0
VERTEX
8
0
10
-0.176893
20
-0.576454
0
VERTEX
8
0
10
-0.177580
20
-0.578723
0
VERTEX
8
0
10
-0.178671
20
-0.580763
0
VERTEX
8
0
10
-0.180122
20
-0.582531
0
VERTEX
8
0
10
-0.181891
20
-0.583983
0
VERTEX
8
0
10
-0.183931
20
-0.585074
0
VERTEX
8
0
10
-0.186200
20
-0.585761
0
VERTEX
8
0
10
-0.188654
20
-0.586000
0
VERTEX
8
0
10
-0.224654
20
-0.586000
0
VERTEX
8
0
10
-0.227107
20
-0.585761
0
VERTEX
8
0
10
-0.229376
20
-0.585074
0
VERTEX
8
0
10
-0.231417
20
-0.583983
0
VERTEX
8
0
10
-0.233185
20
-0.582531
0
VERTEX
8
0
10
-0.234636
20
-0.580763
0
VERTEX
8
0
10
-0.235728
20
-0.578723
0
VERTEX
8
0
10
-0.236415
20
-0.576454
0
VERTEX
8
0
10
-0.236654
20
-0.574000
0
VERTEX
8
0
10
-0.236654
20
-0.498000
0
VERTEX
8
0
10
-0.236415
20
-0.495546
0
VERTEX
8
0
10
-0.235728
20
-0.493277
0
VERTEX
8
0
10
-0.234636
20
-0.491237
0
VERTEX
8
0
10
-0.233185
20
-0.489469
0
VERTEX
8
0
10
-0.231417
20
-0.488017
0
VERTEX
8
0
10
-0.229376
20
-0.486926
0
VERTEX
8
0
10
-0.227107
20
-0.486239
0
VERTEX
8
0
10
-0.224654
20
-0.486000
0
SEQEND
8
0
0
CIRCLE
8
0
10
-0.206654
20
-0.536000
40
0.020000
0
POLYLINE
8
0
66
1
70
1
40
0
41
0
0
VERTEX
8
0
10
-0.124654
20
-0.486000
0
VERTEX
8
0
10
-0.088654
20
-0.486000
0
VERTEX
8
0
10
-0.086200
20
-0.486239
0
VERTEX
8
0
10
-0.083931
20
-0.486926
0
VERTEX
8
0
10
-0.081891
20
-0.488017
0
VERTEX
8
0
10
-0.080122
20
-0.489469
0
VERTEX
8
0
10
-0.078671
20
-0.491237
0
VERTEX
8
0
10
-0.077580
20
-0.493277
0
VERTEX
8
0
10
-0.076893
20
-0.495546
0
VERTEX
8
0
10
-0.076654
20
-0.498000
0
VERTEX
8
0
10
-0.076654
20
-0.574000
0
VERTEX
8
0
10
-0.076893
20
-0.576454
0
VERTEX
8
0
10
-0.077580
20
-0.578723
0
VERTEX
8
0
10
-0.078671
20
-0.580763
0
VERTEX
8
0
10
-0.080122
20
-0.582531
0
VERTEX
8
0
10
-0.081891
20
-0.583983
0
VERTEX
8
0
10
-0.083931
20
-0.585074
0
VERTEX
8
0
10
-0.086200
20
-0.585761
0
VERTEX
8
0
10
-0.088654
20
-0.586000
0
VERTEX
8
0
10
-0.124654
20
-0.586000
0
VERTEX
8
0
10
-0.127107
20
-0.585761
0
VERTEX
8
0
10
-0.129376
20
-0.585074
0
VERTEX
8
0
10
-0.131417
20
-0.583983
0
VERTEX
8
0
10
-0.133185
20
-0.582531
0
VERTEX
8
0
10
-0.134636
20
-0.580763
0
VERTEX
8
0
10
-0.135728
20
-0.578723
0
VERTEX
8
0
10
-0.136415
20
-0.576454
0
VERTEX
8
0
10
-0.136654
20
-0.574000
0
VERTEX
8
0
10
-0.136654
20
-0.498000
0
VERTEX
8
0
10
-0.136415
20
-0.495546
0
VERTEX
8
0
10
-0.135728
20
-0.493277
0
VERTEX
8
0
10
-0.134636
20
-0.491237
0
VERTEX
8
0
10
-0.133185
20
-0.489469
0
VERTEX
8
0
10
-0.131417
20
-0.488017
0
VERTEX
8
0
10
-0.129376
20
-0.486926
0
VERTEX
8
0
10
-0.127107
20
-0.486239
0
VERTEX
8
0
10
-0.124654
20
-0.486000
0
SEQEND
8
0
0
CIRCLE
8
0
10
-0.106654
20
-0.536000
40
0.020000
0
POLYLINE
8
0
66
1
70
1
40
0
41
0
0
VERTEX
8
0
10
-0.024654
20
-0.486000
0
VERTEX
8
0
10
0.011346
20
-0.486000
0
VERTEX
8
0
10
0.013800
20
-0.486239
0
VERTEX
8
0
10
0.016069
20
-0.486926
0
VERTEX
8
0
10
0.018109
20
-0.488017
0
VERTEX
8
0
10
0.019878
20
-0.489469
0
VERTEX
8
0
10
0.021329
20
-0.491237
0
VERTEX
8
0
10
0.022420
20
-0.493277
0
VERTEX
8
0
10
0.023107
20
-0.495546
0
VERTEX
8
0
10
0.023346
20
-0.498000
0
VERTEX
8
0
10
0.023346
20
-0.574000
0
VERTEX
8
0
10
0.023107
20
-0.576454
0
VERTEX
8
0
10
0.022420
20
-0.578723
0
VERTEX
8
0
10
0.021329
20
-0.580763
0
VERTEX
8
0
10
0.019878
20
-0.582531
0
VERTEX
8
0
10
0.018109
20
-0.583983
0
VERTEX
8
0
10
0.016069
20
-0.585074
0
VERTEX
8
0
10
0.013800
20
-0.585761
0
VERTEX
8
0
10
0.011346
20
-0.586000
0
VERTEX
8
0
10
-0.024654
20
-0.586000
0
VERTEX
8
0
10
-0.027107
20
-0.585761
0
VERTEX
8
0
10
-0.029376
20
-0.585074
0
VERTEX
8
0
10
-0.031417
20
-0.583983
0
VERTEX
8
0
10
-0.033185
20
-0.582531
0
VERTEX
8
0
10
-0.034636
20
-0.580763
0
VERTEX
8
0
10
-0.035728
20
-0.578723
0
VERTEX
8
0
10
-0.036415
20
-0.576454
0
VERTEX
8
0
10
-0.036654
20
-0.574000
0
VERTEX
8
0
10
-0.036654
20
-0.498000
0
VERTEX
8
0
10
-0.036415
20
-0.495546
0
VERTEX
8
0
10
-0.035728
20
-0.493277
0
VERTEX
8
0
10
-0.034636
20
-0.491237
0
VERTEX
8
0
10
-0.033185
20
-0.489469
0
VERTEX
8
0
10
-0.031417
20
-0.488017
0
VERTEX
8
0
10
-0.029376
20
-0.486926
0
VERTEX
8
0
10
-0.027107
20
-0.486239
0
VERTEX
8
0
10
-0.024654
20
-0.486000
0
SEQEND
8
0
0
CIRCLE
8
0
10
-0.006654
20
-0.536000
40
0.020000
0
POLYLINE
8
0
66
1
70
1
40
0
41
0
0
VERTEX
8
0
10
0.075346
20
-0.486000
0
VERTEX
8
0
10
0.111346
20
-0.486000
0
VERTEX
8
0
10
0.113800
20
-0.486239
0
VERTEX
8
0
10
0.116069
20
-0.486926
0
VERTEX
8
0
10
0.118109
20
-0.488017
0
VERTEX
8
0
10
0.119878
20
-0.489469
0
VERTEX
8
0
10
0.121329
20
-0.491237
0
VERTEX
8
0
10
0.122420
20
-0.493277
0
VERTEX
8
0
10
0.123107
20
-0.495546
0
VERTEX
8
0
10
0.123346
20
-0.498000
0
VERTEX
8
0
10
0.123346
20
-0.574000
0
VERTEX
8
0
10
0.123107
20
-0.576454
0
VERTEX
8
0
10
0.122420
20
-0.578723
0
VERTEX
8
0
10
0.121329
20
-0.580763
0
VERTEX
8
0
10
0.119878
20
-0.582531
0
VERTEX
8
0
10
0.118109
20
-0.583983
0
VERTEX
8
0
10
0.116069
20
-0.585074
0
VERTEX
8
0
10
0.113800
20
-0.585761
0
VERTEX
8
0
10
0.111346
20
-0.586000
0
VERTEX
8
0
10
0.075346
20
-0.586000
0
VERTEX
8
0
10
0.072893
20
-0.585761
0
VERTEX
8
0
10
0.070624
20
-0.585074
0
VERTEX
8
0
10
0.068583
20
-0.583983
0
VERTEX
8
0
10
0.066815
20
-0.582531
0
VERTEX
8
0
10
0.065364
20
-0.580763
0
VERTEX
8
0
10
0.064272
20
-0.578723
0
VERTEX
8
0
10
0.063585
20
-0.576454
0
VERTEX
8
0
10
0.063346
20
-0.574000
0
VERTEX
8
0
10
0.063346
20
-0.498000
0
VERTEX
8
0
10
0.063585
20
-0.495546
0
VERTEX
8
0
10
0.064272
20
-0.493277
0
VERTEX
8
0
10
0.065364
20
-0.491237
0
VERTEX
8
0
10
0.066815
20
-0.489469
0
VERTEX
8
0
10
0.068583
20
-0.488017
0
VERTEX
8
0
10
0.070624
20
-0.486926
0
VERTEX
8
0
10
0.072893
20
-0.486239
0
VERTEX
8
0
10
0.075346
20
-0.486000
0
SEQEND
8
0
0
CIRCLE
8
0
10
0.093346
20
-0.536000
40
0.020000
0
POLYLINE
8
0
66
1
70
1
40
0
41
0
0
VERTEX
8
0
10
0.175346
20
-0.486000
0
VERTEX
8
0
10
0.211346
20
-0.486000
0
VERTEX
8
0
10
0.213800
20
-0.486239
0
VERTEX
8
0
10
0.216069
20
-0.486926
0
VERTEX
8
0
10
0.218109
20
-0.488017
0
VERTEX
8
0
10
0.219878
20
-0.489469
0
VERTEX
8
0
10
0.221329
20
-0.491237
0
VERTEX
8
0
10
0.222420
20
-0.493277
0
VERTEX
8
0
10
0.223107
20
-0.495546
0
VERTEX
8
0
10
0.223346
20
-0.498000
0
VERTEX
8
0
10
0.223346
20
-0.574000
0
VERTEX
8
0
10
0.223107
20
-0.576454
0
VERTEX
8
0
10
0.222420
20
-0.578723
0
VERTEX
8
0
10
0.221329
20
-0.580763
0
VERTEX
8
0
10
0.219878
20
-0.582531
0
VERTEX
8
0
10
0.218109
20
-0.583983
0
VERTEX
8
0
10
0.216069
20
-0.585074
0
VERTEX
8
0
10
0.213800
20
-0.585761
0
VERTEX
8
0
10
0.211346
20
-0.586000
0
VERTEX
8
0
10
0.175346
20
-0.586000
0
VERTEX
8
0
10
0.172893
20
-0.585761
0
VERTEX
8
0
10
0.170624
20
-0.585074
0
VERTEX
8
0
10
0.168583
20
-0.583983
0
VERTEX
8
0
10
0.166815
20
-0.582531
0
VERTEX
8
0
10
0.165364
20
-0.580763
0
VERTEX
8
0
10
0.164272
20
-0.578723
0
VERTEX
8
0
10
0.163585
20
-0.576454
0
VERTEX
8
0
10
0.163346
20
-0.574000
0
VERTEX
8
0
10
0.163346
20
-0.498000
0
VERTEX
8
0
10
0.163585
20
-0.495546
0
VERTEX
8
0
10
0.164272
20
-0.493277
0
VERTEX
8
0
10
0.165364
20
-0.491237
0
VERTEX
8
0
10
0.166815
20
-0.489469
0
VERTEX
8
0
10
0.168583
20
-0.488017
0
VERTEX
8
0
10
0.170624
20
-0.486926
0
VERTEX
8
0
10
0.172893
20
-0.486239
0
VERTEX
8
0
10
0.175346
20
-0.486000
0
SEQEND
8
0
0
CIRCLE
8
0
10
0.193346
20
-0.536000
40
0.020000
0
INSERT
8
0
2
EPAD
10
0.343346
20
0.540610
41
0.120000
42
0.120000
0
CIRCLE
8
0
10
0.343346
20
0.540610
40
0.030000
0
INSERT
8
0
2
EPAD
10
0.143346
20
0.540610
41
0.120000
42
0.120000
0
CIRCLE
8
0
10
0.143346
20
0.540610
40
0.030000
0
INSERT
8
0
2
EPAD
10
-0.589724
20
-0.263524
41
0.070000
42
0.070000
0
CIRCLE
8
0
10
-0.589724
20
-0.263524
40
0.025000
0
INSERT
8
0
2
EPAD
10
-0.589724
20
0.136476
41
0.070000
42
0.070000
0
CIRCLE
8
0
10
-0.589724
20
0.136476
40
0.025000
0
INSERT
8
0
2
EPAD
10
0.614291
20
-0.263524
41
0.070000
42
0.070000
0
CIRCLE
8
0
10
0.614291
20
-0.263524
40
0.025000
0
INSERT
8
0
2
EPAD
10
0.614291
20
0.136476
41
0.070000
42
0.070000
0
CIRCLE
8
0
10
0.614291
20
0.136476
40
0.025000
0
POLYLINE
8
0
66
1
40
0.008000
41
0.008000
0
VERTEX
8
0
10
-1.003110
20
-0.519232
0
VERTEX
8
0
10
-1.000760
20
-0.543382
0
VERTEX
8
0
10
-0.993998
20
-0.565715
0
VERTEX
8
0
10
-0.983257
20
-0.585799
0
VERTEX
8
0
10
-0.968969
20
-0.603201
0
VERTEX
8
0
10
-0.951567
20
-0.617489
0
VERTEX
8
0
10
-0.931483
20
-0.628230
0
VERTEX
8
0
10
-0.909150
20
-0.634993
0
VERTEX
8
0
10
-0.885000
20
-0.637343
0
SEQEND
8
0
0
POLYLINE
8
0
66
1
40
0.008000
41
0.008000
0
VERTEX
8
0
10
0.689803
20
-0.519232
0
VERTEX
8
0
10
0.687453
20
-0.543382
0
VERTEX
8
0
10
0.680691
20
-0.565715
0
VERTEX
8
0
10
0.669950
20
-0.585799
0
VERTEX
8
0
10
0.655662
20
-0.603201
0
VERTEX
8
0
10
0.638259
20
-0.617489
0
VERTEX
8
0
10
0.618176
20
-0.628230
0
VERTEX
8
0
10
0.595843
20
-0.634993
0
VERTEX
8
0
10
0.571693
20
-0.637343
0
SEQEND
8
0
0
POLYLINE
8
0
66
1
40
0.008000
41
0.008000
0
VERTEX
8
0
10
0.689803
20
0.622500
0
VERTEX
8
0
10
0.687453
20
0.646650
0
VERTEX
8
0
10
0.680691
20
0.668983
0
VERTEX
8
0
10
0.669950
20
0.689067
0
VERTEX
8
0
10
0.655662
20
0.706469
0
VERTEX
8
0
10
0.638259
20
0.720757
0
VERTEX
8
0
10
0.618176
20
0.731498
0
VERTEX
8
0
10
0.595843
20
0.738260
0
VERTEX
8
0
10
0.571693
20
0.740610
0
SEQEND
8
0
0
POLYLINE
8
0
66
1
40
0.008000
41
0.008000
0
VERTEX
8
0
10
-1.003110
20
0.622500
0
VERTEX
8
0
10
-1.000760
20
0.646650
0
VERTEX
8
0
10
-0.993998
20
0.668983
0
VERTEX
8
0
10
-0.983257
20
0.689067
0
VERTEX
8
0
10
-0.968969
20
0.706469
0
VERTEX
8
0
10
-0.951567
20
0.720757
0
VERTEX
8
0
10
-0.931483
20
0.731498
0
VERTEX
8
0
10
-0.909150
20
0.738260
0
VERTEX
8
0
10
-0.885000
20
0.740610
0
VERTEX
8
0
10
0.571693
20
0.740610
0
SEQEND
8
0
0
POLYLINE
8
0
66
1
40
0.008000
41
0.008000
0
VERTEX
8
0
10
0.689803
20
0.622500
0
VERTEX
8
0
10
0.689803
20
-0.519232
0
SEQEND
8
0
0
POLYLINE
8
0
66
1
40
0.008000
41
0.008000
0
VERTEX
8
0
10
0.571693
20
-0.637343
0
VERTEX
8
0
10
-0.885000
20
-0.637343
0
SEQEND
8
0
0
POLYLINE
8
0
66
1
40
0.008000
41
0.008000
0
VERTEX
8
0
10
-1.003110
20
-0.519232
0
VERTEX
8
0
10
-1.003110
20
0.622500
0
SEQEND
8
0
0
ENDSEC
0
EOF

