  0
SECTION
  2
HEADER
  9
$ACADVER
  1
AC1009
  9
$INSUNITS
 70
     1
  0
ENDSEC
  0
SECTION
  2
TABLES
  0
TABLE
  2
LAYER
 70
     8
  0
LAYER
  2
0
 62
     7
 70
0
  6
CONTINUOUS
  0
LAYER
  2
1
 62
     1
 70
0
  6
CONTINUOUS
  0
LAYER
  2
2
 62
     2
 70
0
  6
CONTINUOUS
  0
LAYER
  2
3
 62
     3
 70
0
  6
CONTINUOUS
  0
LAYER
  2
4
 62
     4
 70
0
  6
CONTINUOUS
  0
LAYER
  2
5
 62
     5
 70
0
  6
CONTINUOUS
  0
LAYER
  2
6
 62
     6
 70
0
  6
CONTINUOUS
  0
LAYER
  2
7
 62
     7
 70
0
  6
CONTINUOUS
  0
ENDTAB
  0
TABLE
  2
STYLE
 70
     1
  0
STYLE
 70
     0
  2
STANDARD
  3
TXT
 40
0.00
 41
1.00
 42
1.00
 50
0.00
 71
     0
  0
ENDTAB
  0
ENDSEC
  0
SECTION
  2
BLOCKS
  0
BLOCK
  8
0
  2
EPAD
 70
0
 10
0.0
 20
0.0
  0
POLYLINE
  8
0
 66
1
 70
1
 40
0.5
 41
0.5
  0
VERTEX
  8
0
 10
-0.25
 20
0.0
 42
1.0
  0
VERTEX
  8
0
 10
0.25
 20
0.0
 42
1.0
  0
SEQEND
  8
0
  0
ENDBLK
  8
0
  0
BLOCK
  8
0
  2
RPAD
 70
0
 10
0.0
 20
0.0
  0
TRACE
  8
0
 10
-0.5
 20
-0.5
 11
-0.5
 21
0.5
 12
0.5
 22
-0.5
 13
0.5
 23
0.5
  0
ENDBLK
  8
0
  0
ENDSEC
0
SECTION
2
ENTITIES
0
INSERT
8
0
2
EPAD
10
-0.789273
20
-0.489227
41
0.019685
42
0.019685
0
CIRCLE
8
0
10
-0.789273
20
-0.489227
40
0.010000
0
INSERT
8
0
2
EPAD
10
0.372713
20
-0.657102
41
0.019685
42
0.019685
0
CIRCLE
8
0
10
0.372713
20
-0.657102
40
0.010000
0
INSERT
8
0
2
EPAD
10
-0.016142
20
-0.650472
41
0.019685
42
0.019685
0
CIRCLE
8
0
10
-0.016142
20
-0.650472
40
0.010000
0
INSERT
8
0
2
EPAD
10
-0.946142
20
0.649528
41
0.019685
42
0.019685
0
CIRCLE
8
0
10
-0.946142
20
0.649528
40
0.010000
0
INSERT
8
0
2
EPAD
10
-0.573969
20
0.379178
41
0.019685
42
0.019685
0
CIRCLE
8
0
10
-0.573969
20
0.379178
40
0.010000
0
INSERT
8
0
2
EPAD
10
-0.595117
20
0.379407
41
0.019685
42
0.019685
0
CIRCLE
8
0
10
-0.595117
20
0.379407
40
0.010000
0
INSERT
8
0
2
EPAD
10
-0.617065
20
0.378721
41
0.019685
42
0.019685
0
CIRCLE
8
0
10
-0.617065
20
0.378721
40
0.010000
0
INSERT
8
0
2
EPAD
10
-0.573969
20
0.354178
41
0.019685
42
0.019685
0
CIRCLE
8
0
10
-0.573969
20
0.354178
40
0.010000
0
INSERT
8
0
2
EPAD
10
-0.595117
20
0.354407
41
0.019685
42
0.019685
0
CIRCLE
8
0
10
-0.595117
20
0.354407
40
0.010000
0
INSERT
8
0
2
EPAD
10
-0.617065
20
0.353721
41
0.019685
42
0.019685
0
CIRCLE
8
0
10
-0.617065
20
0.353721
40
0.010000
0
INSERT
8
0
2
EPAD
10
-0.573969
20
0.329178
41
0.019685
42
0.019685
0
CIRCLE
8
0
10
-0.573969
20
0.329178
40
0.010000
0
INSERT
8
0
2
EPAD
10
-0.595117
20
0.329407
41
0.019685
42
0.019685
0
CIRCLE
8
0
10
-0.595117
20
0.329407
40
0.010000
0
INSERT
8
0
2
EPAD
10
-0.617065
20
0.328721
41
0.019685
42
0.019685
0
CIRCLE
8
0
10
-0.617065
20
0.328721
40
0.010000
0
INSERT
8
0
2
EPAD
10
-0.573969
20
0.304178
41
0.019685
42
0.019685
0
CIRCLE
8
0
10
-0.573969
20
0.304178
40
0.010000
0
INSERT
8
0
2
EPAD
10
-0.595117
20
0.304407
41
0.019685
42
0.019685
0
CIRCLE
8
0
10
-0.595117
20
0.304407
40
0.010000
0
INSERT
8
0
2
EPAD
10
-0.617065
20
0.303721
41
0.019685
42
0.019685
0
CIRCLE
8
0
10
-0.617065
20
0.303721
40
0.010000
0
INSERT
8
0
2
EPAD
10
-0.573969
20
0.279178
41
0.019685
42
0.019685
0
CIRCLE
8
0
10
-0.573969
20
0.279178
40
0.010000
0
INSERT
8
0
2
EPAD
10
-0.595117
20
0.279407
41
0.019685
42
0.019685
0
CIRCLE
8
0
10
-0.595117
20
0.279407
40
0.010000
0
INSERT
8
0
2
EPAD
10
-0.617065
20
0.278721
41
0.019685
42
0.019685
0
CIRCLE
8
0
10
-0.617065
20
0.278721
40
0.010000
0
INSERT
8
0
2
EPAD
10
-0.465117
20
0.029407
41
0.019685
42
0.019685
0
CIRCLE
8
0
10
-0.465117
20
0.029407
40
0.010000
0
INSERT
8
0
2
EPAD
10
-0.465117
20
0.004407
41
0.019685
42
0.019685
0
CIRCLE
8
0
10
-0.465117
20
0.004407
40
0.010000
0
INSERT
8
0
2
EPAD
10
-0.465117
20
0.079407
41
0.019685
42
0.019685
0
CIRCLE
8
0
10
-0.465117
20
0.079407
40
0.010000
0
INSERT
8
0
2
EPAD
10
-0.465117
20
0.054407
41
0.019685
42
0.019685
0
CIRCLE
8
0
10
-0.465117
20
0.054407
40
0.010000
0
INSERT
8
0
2
EPAD
10
-0.465117
20
0.129407
41
0.019685
42
0.019685
0
CIRCLE
8
0
10
-0.465117
20
0.129407
40
0.010000
0
INSERT
8
0
2
EPAD
10
-0.465117
20
0.104407
41
0.019685
42
0.019685
0
CIRCLE
8
0
10
-0.465117
20
0.104407
40
0.010000
0
INSERT
8
0
2
EPAD
10
-0.465117
20
0.154407
41
0.019685
42
0.019685
0
CIRCLE
8
0
10
-0.465117
20
0.154407
40
0.010000
0
INSERT
8
0
2
EPAD
10
-0.465117
20
-0.020593
41
0.019685
42
0.019685
0
CIRCLE
8
0
10
-0.465117
20
-0.020593
40
0.010000
0
INSERT
8
0
2
EPAD
10
-0.465117
20
-0.045593
41
0.019685
42
0.019685
0
CIRCLE
8
0
10
-0.465117
20
-0.045593
40
0.010000
0
INSERT
8
0
2
EPAD
10
-0.837065
20
0.029989
41
0.019685
42
0.019685
0
CIRCLE
8
0
10
-0.837065
20
0.029989
40
0.010000
0
INSERT
8
0
2
EPAD
10
-0.837065
20
0.004989
41
0.019685
42
0.019685
0
CIRCLE
8
0
10
-0.837065
20
0.004989
40
0.010000
0
INSERT
8
0
2
EPAD
10
-0.837065
20
0.079989
41
0.019685
42
0.019685
0
CIRCLE
8
0
10
-0.837065
20
0.079989
40
0.010000
0
INSERT
8
0
2
EPAD
10
-0.837065
20
0.054989
41
0.019685
42
0.019685
0
CIRCLE
8
0
10
-0.837065
20
0.054989
40
0.010000
0
INSERT
8
0
2
EPAD
10
-0.837065
20
0.129989
41
0.019685
42
0.019685
0
CIRCLE
8
0
10
-0.837065
20
0.129989
40
0.010000
0
INSERT
8
0
2
EPAD
10
-0.837065
20
0.104989
41
0.019685
42
0.019685
0
CIRCLE
8
0
10
-0.837065
20
0.104989
40
0.010000
0
INSERT
8
0
2
EPAD
10
-0.837065
20
0.179989
41
0.019685
42
0.019685
0
CIRCLE
8
0
10
-0.837065
20
0.179989
40
0.010000
0
INSERT
8
0
2
EPAD
10
-0.837065
20
0.154989
41
0.019685
42
0.019685
0
CIRCLE
8
0
10
-0.837065
20
0.154989
40
0.010000
0
INSERT
8
0
2
EPAD
10
-0.837065
20
-0.020011
41
0.019685
42
0.019685
0
CIRCLE
8
0
10
-0.837065
20
-0.020011
40
0.010000
0
INSERT
8
0
2
EPAD
10
-0.837065
20
-0.045011
41
0.019685
42
0.019685
0
CIRCLE
8
0
10
-0.837065
20
-0.045011
40
0.010000
0
INSERT
8
0
2
EPAD
10
-0.655117
20
0.029407
41
0.019685
42
0.019685
0
CIRCLE
8
0
10
-0.655117
20
0.029407
40
0.010000
0
INSERT
8
0
2
EPAD
10
-0.677065
20
0.028721
41
0.019685
42
0.019685
0
CIRCLE
8
0
10
-0.677065
20
0.028721
40
0.010000
0
INSERT
8
0
2
EPAD
10
-0.655117
20
0.004407
41
0.019685
42
0.019685
0
CIRCLE
8
0
10
-0.655117
20
0.004407
40
0.010000
0
INSERT
8
0
2
EPAD
10
-0.677065
20
0.003721
41
0.019685
42
0.019685
0
CIRCLE
8
0
10
-0.677065
20
0.003721
40
0.010000
0
INSERT
8
0
2
EPAD
10
-0.655117
20
0.079407
41
0.019685
42
0.019685
0
CIRCLE
8
0
10
-0.655117
20
0.079407
40
0.010000
0
INSERT
8
0
2
EPAD
10
-0.677065
20
0.078721
41
0.019685
42
0.019685
0
CIRCLE
8
0
10
-0.677065
20
0.078721
40
0.010000
0
INSERT
8
0
2
EPAD
10
-0.655117
20
0.054407
41
0.019685
42
0.019685
0
CIRCLE
8
0
10
-0.655117
20
0.054407
40
0.010000
0
INSERT
8
0
2
EPAD
10
-0.677065
20
0.053721
41
0.019685
42
0.019685
0
CIRCLE
8
0
10
-0.677065
20
0.053721
40
0.010000
0
INSERT
8
0
2
EPAD
10
-0.655117
20
0.129407
41
0.019685
42
0.019685
0
CIRCLE
8
0
10
-0.655117
20
0.129407
40
0.010000
0
INSERT
8
0
2
EPAD
10
-0.677065
20
0.128721
41
0.019685
42
0.019685
0
CIRCLE
8
0
10
-0.677065
20
0.128721
40
0.010000
0
INSERT
8
0
2
EPAD
10
-0.655117
20
0.104407
41
0.019685
42
0.019685
0
CIRCLE
8
0
10
-0.655117
20
0.104407
40
0.010000
0
INSERT
8
0
2
EPAD
10
-0.677065
20
0.103721
41
0.019685
42
0.019685
0
CIRCLE
8
0
10
-0.677065
20
0.103721
40
0.010000
0
INSERT
8
0
2
EPAD
10
-0.655117
20
0.179407
41
0.019685
42
0.019685
0
CIRCLE
8
0
10
-0.655117
20
0.179407
40
0.010000
0
INSERT
8
0
2
EPAD
10
-0.677065
20
0.178721
41
0.019685
42
0.019685
0
CIRCLE
8
0
10
-0.677065
20
0.178721
40
0.010000
0
INSERT
8
0
2
EPAD
10
-0.655117
20
0.154407
41
0.019685
42
0.019685
0
CIRCLE
8
0
10
-0.655117
20
0.154407
40
0.010000
0
INSERT
8
0
2
EPAD
10
-0.677065
20
0.153721
41
0.019685
42
0.019685
0
CIRCLE
8
0
10
-0.677065
20
0.153721
40
0.010000
0
INSERT
8
0
2
EPAD
10
-0.655117
20
-0.020593
41
0.019685
42
0.019685
0
CIRCLE
8
0
10
-0.655117
20
-0.020593
40
0.010000
0
INSERT
8
0
2
EPAD
10
-0.655117
20
-0.045593
41
0.019685
42
0.019685
0
CIRCLE
8
0
10
-0.655117
20
-0.045593
40
0.010000
0
INSERT
8
0
2
EPAD
10
-0.677065
20
-0.046279
41
0.019685
42
0.019685
0
CIRCLE
8
0
10
-0.677065
20
-0.046279
40
0.010000
0
INSERT
8
0
2
EPAD
10
0.157480
20
-0.295276
41
0.019685
42
0.019685
0
CIRCLE
8
0
10
0.157480
20
-0.295276
40
0.010000
0
INSERT
8
0
2
EPAD
10
0.157564
20
-0.274616
41
0.019685
42
0.019685
0
CIRCLE
8
0
10
0.157564
20
-0.274616
40
0.010000
0
INSERT
8
0
2
EPAD
10
0.157480
20
-0.255906
41
0.019685
42
0.019685
0
CIRCLE
8
0
10
0.157480
20
-0.255906
40
0.010000
0
INSERT
8
0
2
EPAD
10
0.157480
20
-0.236220
41
0.019685
42
0.019685
0
CIRCLE
8
0
10
0.157480
20
-0.236220
40
0.010000
0
INSERT
8
0
2
EPAD
10
0.177165
20
-0.236220
41
0.019685
42
0.019685
0
CIRCLE
8
0
10
0.177165
20
-0.236220
40
0.010000
0
INSERT
8
0
2
EPAD
10
0.177165
20
-0.255906
41
0.019685
42
0.019685
0
CIRCLE
8
0
10
0.177165
20
-0.255906
40
0.010000
0
INSERT
8
0
2
EPAD
10
0.176773
20
-0.276348
41
0.019685
42
0.019685
0
CIRCLE
8
0
10
0.176773
20
-0.276348
40
0.010000
0
INSERT
8
0
2
EPAD
10
0.177165
20
-0.295276
41
0.019685
42
0.019685
0
CIRCLE
8
0
10
0.177165
20
-0.295276
40
0.010000
0
INSERT
8
0
2
EPAD
10
0.196850
20
-0.295276
41
0.019685
42
0.019685
0
CIRCLE
8
0
10
0.196850
20
-0.295276
40
0.010000
0
INSERT
8
0
2
EPAD
10
0.196934
20
-0.274616
41
0.019685
42
0.019685
0
CIRCLE
8
0
10
0.196934
20
-0.274616
40
0.010000
0
INSERT
8
0
2
EPAD
10
0.196850
20
-0.255906
41
0.019685
42
0.019685
0
CIRCLE
8
0
10
0.196850
20
-0.255906
40
0.010000
0
INSERT
8
0
2
EPAD
10
0.196850
20
-0.236220
41
0.019685
42
0.019685
0
CIRCLE
8
0
10
0.196850
20
-0.236220
40
0.010000
0
INSERT
8
0
2
EPAD
10
0.216535
20
-0.236220
41
0.019685
42
0.019685
0
CIRCLE
8
0
10
0.216535
20
-0.236220
40
0.010000
0
INSERT
8
0
2
EPAD
10
0.216535
20
-0.255906
41
0.019685
42
0.019685
0
CIRCLE
8
0
10
0.216535
20
-0.255906
40
0.010000
0
INSERT
8
0
2
EPAD
10
0.216143
20
-0.276348
41
0.019685
42
0.019685
0
CIRCLE
8
0
10
0.216143
20
-0.276348
40
0.010000
0
INSERT
8
0
2
EPAD
10
0.216535
20
-0.295276
41
0.019685
42
0.019685
0
CIRCLE
8
0
10
0.216535
20
-0.295276
40
0.010000
0
INSERT
8
0
2
EPAD
10
0.196850
20
-0.334646
41
0.019685
42
0.019685
0
CIRCLE
8
0
10
0.196850
20
-0.334646
40
0.010000
0
INSERT
8
0
2
EPAD
10
0.236220
20
-0.334646
41
0.019685
42
0.019685
0
CIRCLE
8
0
10
0.236220
20
-0.334646
40
0.010000
0
INSERT
8
0
2
EPAD
10
0.236220
20
-0.374016
41
0.019685
42
0.019685
0
CIRCLE
8
0
10
0.236220
20
-0.374016
40
0.010000
0
INSERT
8
0
2
EPAD
10
0.196850
20
-0.374016
41
0.019685
42
0.019685
0
CIRCLE
8
0
10
0.196850
20
-0.374016
40
0.010000
0
INSERT
8
0
2
EPAD
10
0.196850
20
-0.413386
41
0.019685
42
0.019685
0
CIRCLE
8
0
10
0.196850
20
-0.413386
40
0.010000
0
INSERT
8
0
2
EPAD
10
0.236220
20
-0.413386
41
0.019685
42
0.019685
0
CIRCLE
8
0
10
0.236220
20
-0.413386
40
0.010000
0
INSERT
8
0
2
EPAD
10
0.216535
20
-0.334646
41
0.019685
42
0.019685
0
CIRCLE
8
0
10
0.216535
20
-0.334646
40
0.010000
0
INSERT
8
0
2
EPAD
10
0.216535
20
-0.374016
41
0.019685
42
0.019685
0
CIRCLE
8
0
10
0.216535
20
-0.374016
40
0.010000
0
INSERT
8
0
2
EPAD
10
0.236220
20
-0.354331
41
0.019685
42
0.019685
0
CIRCLE
8
0
10
0.236220
20
-0.354331
40
0.010000
0
INSERT
8
0
2
EPAD
10
0.216535
20
-0.413386
41
0.019685
42
0.019685
0
CIRCLE
8
0
10
0.216535
20
-0.413386
40
0.010000
0
INSERT
8
0
2
EPAD
10
0.196850
20
-0.393701
41
0.019685
42
0.019685
0
CIRCLE
8
0
10
0.196850
20
-0.393701
40
0.010000
0
INSERT
8
0
2
EPAD
10
0.118110
20
-0.452756
41
0.019685
42
0.019685
0
CIRCLE
8
0
10
0.118110
20
-0.452756
40
0.010000
0
INSERT
8
0
2
EPAD
10
0.098425
20
-0.472441
41
0.019685
42
0.019685
0
CIRCLE
8
0
10
0.098425
20
-0.472441
40
0.010000
0
INSERT
8
0
2
EPAD
10
0.118110
20
-0.472441
41
0.019685
42
0.019685
0
CIRCLE
8
0
10
0.118110
20
-0.472441
40
0.010000
0
INSERT
8
0
2
EPAD
10
0.137795
20
-0.472441
41
0.019685
42
0.019685
0
CIRCLE
8
0
10
0.137795
20
-0.472441
40
0.010000
0
INSERT
8
0
2
EPAD
10
0.137795
20
-0.452756
41
0.019685
42
0.019685
0
CIRCLE
8
0
10
0.137795
20
-0.452756
40
0.010000
0
INSERT
8
0
2
EPAD
10
0.157480
20
-0.452756
41
0.019685
42
0.019685
0
CIRCLE
8
0
10
0.157480
20
-0.452756
40
0.010000
0
INSERT
8
0
2
EPAD
10
0.157480
20
-0.472441
41
0.019685
42
0.019685
0
CIRCLE
8
0
10
0.157480
20
-0.472441
40
0.010000
0
INSERT
8
0
2
EPAD
10
0.177165
20
-0.472441
41
0.019685
42
0.019685
0
CIRCLE
8
0
10
0.177165
20
-0.472441
40
0.010000
0
INSERT
8
0
2
EPAD
10
0.177165
20
-0.452756
41
0.019685
42
0.019685
0
CIRCLE
8
0
10
0.177165
20
-0.452756
40
0.010000
0
INSERT
8
0
2
EPAD
10
0.196850
20
-0.452756
41
0.019685
42
0.019685
0
CIRCLE
8
0
10
0.196850
20
-0.452756
40
0.010000
0
INSERT
8
0
2
EPAD
10
0.196850
20
-0.472441
41
0.019685
42
0.019685
0
CIRCLE
8
0
10
0.196850
20
-0.472441
40
0.010000
0
INSERT
8
0
2
EPAD
10
0.216535
20
-0.472441
41
0.019685
42
0.019685
0
CIRCLE
8
0
10
0.216535
20
-0.472441
40
0.010000
0
INSERT
8
0
2
EPAD
10
0.216535
20
-0.452756
41
0.019685
42
0.019685
0
CIRCLE
8
0
10
0.216535
20
-0.452756
40
0.010000
0
INSERT
8
0
2
EPAD
10
0.314961
20
-0.452756
41
0.019685
42
0.019685
0
CIRCLE
8
0
10
0.314961
20
-0.452756
40
0.010000
0
INSERT
8
0
2
EPAD
10
0.314961
20
-0.472441
41
0.019685
42
0.019685
0
CIRCLE
8
0
10
0.314961
20
-0.472441
40
0.010000
0
INSERT
8
0
2
EPAD
10
0.334646
20
-0.472441
41
0.019685
42
0.019685
0
CIRCLE
8
0
10
0.334646
20
-0.472441
40
0.010000
0
INSERT
8
0
2
EPAD
10
0.334646
20
-0.452756
41
0.019685
42
0.019685
0
CIRCLE
8
0
10
0.334646
20
-0.452756
40
0.010000
0
INSERT
8
0
2
EPAD
10
0.275591
20
-0.452756
41
0.019685
42
0.019685
0
CIRCLE
8
0
10
0.275591
20
-0.452756
40
0.010000
0
INSERT
8
0
2
EPAD
10
0.275591
20
-0.472441
41
0.019685
42
0.019685
0
CIRCLE
8
0
10
0.275591
20
-0.472441
40
0.010000
0
INSERT
8
0
2
EPAD
10
0.275591
20
-0.492126
41
0.019685
42
0.019685
0
CIRCLE
8
0
10
0.275591
20
-0.492126
40
0.010000
0
INSERT
8
0
2
EPAD
10
0.275591
20
-0.511811
41
0.019685
42
0.019685
0
CIRCLE
8
0
10
0.275591
20
-0.511811
40
0.010000
0
INSERT
8
0
2
EPAD
10
-0.157480
20
0.374016
41
0.019685
42
0.019685
0
CIRCLE
8
0
10
-0.157480
20
0.374016
40
0.010000
0
INSERT
8
0
2
EPAD
10
-0.807087
20
0.027492
41
0.019685
42
0.019685
0
CIRCLE
8
0
10
-0.807087
20
0.027492
40
0.010000
0
INSERT
8
0
2
EPAD
10
-0.807087
20
0.002492
41
0.019685
42
0.019685
0
CIRCLE
8
0
10
-0.807087
20
0.002492
40
0.010000
0
INSERT
8
0
2
EPAD
10
-0.807087
20
0.077492
41
0.019685
42
0.019685
0
CIRCLE
8
0
10
-0.807087
20
0.077492
40
0.010000
0
INSERT
8
0
2
EPAD
10
-0.807087
20
0.052492
41
0.019685
42
0.019685
0
CIRCLE
8
0
10
-0.807087
20
0.052492
40
0.010000
0
INSERT
8
0
2
EPAD
10
-0.807087
20
0.127492
41
0.019685
42
0.019685
0
CIRCLE
8
0
10
-0.807087
20
0.127492
40
0.010000
0
INSERT
8
0
2
EPAD
10
-0.807087
20
0.102492
41
0.019685
42
0.019685
0
CIRCLE
8
0
10
-0.807087
20
0.102492
40
0.010000
0
INSERT
8
0
2
EPAD
10
-0.807087
20
0.177492
41
0.019685
42
0.019685
0
CIRCLE
8
0
10
-0.807087
20
0.177492
40
0.010000
0
INSERT
8
0
2
EPAD
10
-0.807087
20
0.152492
41
0.019685
42
0.019685
0
CIRCLE
8
0
10
-0.807087
20
0.152492
40
0.010000
0
INSERT
8
0
2
EPAD
10
-0.778009
20
0.025000
41
0.019685
42
0.019685
0
CIRCLE
8
0
10
-0.778009
20
0.025000
40
0.010000
0
INSERT
8
0
2
EPAD
10
-0.778009
20
0.000000
41
0.019685
42
0.019685
0
CIRCLE
8
0
10
-0.778009
20
0.000000
40
0.010000
0
INSERT
8
0
2
EPAD
10
-0.778009
20
0.075000
41
0.019685
42
0.019685
0
CIRCLE
8
0
10
-0.778009
20
0.075000
40
0.010000
0
INSERT
8
0
2
EPAD
10
-0.778009
20
0.050000
41
0.019685
42
0.019685
0
CIRCLE
8
0
10
-0.778009
20
0.050000
40
0.010000
0
INSERT
8
0
2
EPAD
10
-0.778009
20
0.125000
41
0.019685
42
0.019685
0
CIRCLE
8
0
10
-0.778009
20
0.125000
40
0.010000
0
INSERT
8
0
2
EPAD
10
-0.778009
20
0.100000
41
0.019685
42
0.019685
0
CIRCLE
8
0
10
-0.778009
20
0.100000
40
0.010000
0
INSERT
8
0
2
EPAD
10
-0.778009
20
0.175000
41
0.019685
42
0.019685
0
CIRCLE
8
0
10
-0.778009
20
0.175000
40
0.010000
0
INSERT
8
0
2
EPAD
10
-0.778009
20
0.150000
41
0.019685
42
0.019685
0
CIRCLE
8
0
10
-0.778009
20
0.150000
40
0.010000
0
INSERT
8
0
2
EPAD
10
-0.807087
20
-0.020113
41
0.019685
42
0.019685
0
CIRCLE
8
0
10
-0.807087
20
-0.020113
40
0.010000
0
INSERT
8
0
2
EPAD
10
-0.776655
20
-0.021759
41
0.019685
42
0.019685
0
CIRCLE
8
0
10
-0.776655
20
-0.021759
40
0.010000
0
INSERT
8
0
2
EPAD
10
-0.677065
20
-0.021279
41
0.019685
42
0.019685
0
CIRCLE
8
0
10
-0.677065
20
-0.021279
40
0.010000
0
INSERT
8
0
2
EPAD
10
-0.465479
20
0.183232
41
0.019685
42
0.019685
0
CIRCLE
8
0
10
-0.465479
20
0.183232
40
0.010000
0
INSERT
8
0
2
EPAD
10
-0.465646
20
0.206546
41
0.019685
42
0.019685
0
CIRCLE
8
0
10
-0.465646
20
0.206546
40
0.010000
0
INSERT
8
0
2
EPAD
10
-0.759252
20
-0.458268
41
0.019685
42
0.019685
0
CIRCLE
8
0
10
-0.759252
20
-0.458268
40
0.010000
0
INSERT
8
0
2
EPAD
10
-0.734252
20
-0.458268
41
0.019685
42
0.019685
0
CIRCLE
8
0
10
-0.734252
20
-0.458268
40
0.010000
0
INSERT
8
0
2
EPAD
10
-0.734252
20
-0.483268
41
0.019685
42
0.019685
0
CIRCLE
8
0
10
-0.734252
20
-0.483268
40
0.010000
0
INSERT
8
0
2
EPAD
10
-0.709252
20
-0.483268
41
0.019685
42
0.019685
0
CIRCLE
8
0
10
-0.709252
20
-0.483268
40
0.010000
0
INSERT
8
0
2
EPAD
10
-0.709252
20
-0.508268
41
0.019685
42
0.019685
0
CIRCLE
8
0
10
-0.709252
20
-0.508268
40
0.010000
0
INSERT
8
0
2
EPAD
10
-0.759252
20
-0.508268
41
0.019685
42
0.019685
0
CIRCLE
8
0
10
-0.759252
20
-0.508268
40
0.010000
0
INSERT
8
0
2
EPAD
10
-0.759252
20
-0.483268
41
0.019685
42
0.019685
0
CIRCLE
8
0
10
-0.759252
20
-0.483268
40
0.010000
0
INSERT
8
0
2
EPAD
10
-0.734252
20
-0.508268
41
0.019685
42
0.019685
0
CIRCLE
8
0
10
-0.734252
20
-0.508268
40
0.010000
0
INSERT
8
0
2
EPAD
10
-0.759252
20
-0.533268
41
0.019685
42
0.019685
0
CIRCLE
8
0
10
-0.759252
20
-0.533268
40
0.010000
0
INSERT
8
0
2
EPAD
10
-0.734252
20
-0.533268
41
0.019685
42
0.019685
0
CIRCLE
8
0
10
-0.734252
20
-0.533268
40
0.010000
0
INSERT
8
0
2
EPAD
10
-0.709252
20
-0.533268
41
0.019685
42
0.019685
0
CIRCLE
8
0
10
-0.709252
20
-0.533268
40
0.010000
0
INSERT
8
0
2
EPAD
10
-0.684252
20
-0.533268
41
0.019685
42
0.019685
0
CIRCLE
8
0
10
-0.684252
20
-0.533268
40
0.010000
0
INSERT
8
0
2
EPAD
10
-0.684252
20
-0.508268
41
0.019685
42
0.019685
0
CIRCLE
8
0
10
-0.684252
20
-0.508268
40
0.010000
0
INSERT
8
0
2
EPAD
10
-0.809252
20
-0.458268
41
0.019685
42
0.019685
0
CIRCLE
8
0
10
-0.809252
20
-0.458268
40
0.010000
0
INSERT
8
0
2
EPAD
10
-0.834252
20
-0.458268
41
0.019685
42
0.019685
0
CIRCLE
8
0
10
-0.834252
20
-0.458268
40
0.010000
0
INSERT
8
0
2
EPAD
10
-0.859252
20
-0.458268
41
0.019685
42
0.019685
0
CIRCLE
8
0
10
-0.859252
20
-0.458268
40
0.010000
0
INSERT
8
0
2
EPAD
10
-0.884252
20
-0.458268
41
0.019685
42
0.019685
0
CIRCLE
8
0
10
-0.884252
20
-0.458268
40
0.010000
0
INSERT
8
0
2
EPAD
10
-0.784252
20
-0.458268
41
0.019685
42
0.019685
0
CIRCLE
8
0
10
-0.784252
20
-0.458268
40
0.010000
0
INSERT
8
0
2
EPAD
10
-0.932857
20
-0.659135
41
0.019685
42
0.019685
0
CIRCLE
8
0
10
-0.932857
20
-0.659135
40
0.010000
0
INSERT
8
0
2
EPAD
10
0.640748
20
-0.158268
41
0.019685
42
0.019685
0
CIRCLE
8
0
10
0.640748
20
-0.158268
40
0.010000
0
INSERT
8
0
2
EPAD
10
0.640748
20
-0.183268
41
0.019685
42
0.019685
0
CIRCLE
8
0
10
0.640748
20
-0.183268
40
0.010000
0
INSERT
8
0
2
EPAD
10
0.640748
20
-0.208268
41
0.019685
42
0.019685
0
CIRCLE
8
0
10
0.640748
20
-0.208268
40
0.010000
0
INSERT
8
0
2
EPAD
10
0.640748
20
-0.233268
41
0.019685
42
0.019685
0
CIRCLE
8
0
10
0.640748
20
-0.233268
40
0.010000
0
INSERT
8
0
2
EPAD
10
0.640748
20
-0.258268
41
0.019685
42
0.019685
0
CIRCLE
8
0
10
0.640748
20
-0.258268
40
0.010000
0
INSERT
8
0
2
EPAD
10
0.640748
20
-0.283268
41
0.019685
42
0.019685
0
CIRCLE
8
0
10
0.640748
20
-0.283268
40
0.010000
0
INSERT
8
0
2
EPAD
10
0.640748
20
-0.308268
41
0.019685
42
0.019685
0
CIRCLE
8
0
10
0.640748
20
-0.308268
40
0.010000
0
INSERT
8
0
2
EPAD
10
0.640748
20
-0.333268
41
0.019685
42
0.019685
0
CIRCLE
8
0
10
0.640748
20
-0.333268
40
0.010000
0
INSERT
8
0
2
EPAD
10
0.615748
20
-0.158268
41
0.019685
42
0.019685
0
CIRCLE
8
0
10
0.615748
20
-0.158268
40
0.010000
0
INSERT
8
0
2
EPAD
10
0.615748
20
-0.183268
41
0.019685
42
0.019685
0
CIRCLE
8
0
10
0.615748
20
-0.183268
40
0.010000
0
INSERT
8
0
2
EPAD
10
0.615748
20
-0.208268
41
0.019685
42
0.019685
0
CIRCLE
8
0
10
0.615748
20
-0.208268
40
0.010000
0
INSERT
8
0
2
EPAD
10
0.615748
20
-0.233268
41
0.019685
42
0.019685
0
CIRCLE
8
0
10
0.615748
20
-0.233268
40
0.010000
0
INSERT
8
0
2
EPAD
10
0.615748
20
-0.258268
41
0.019685
42
0.019685
0
CIRCLE
8
0
10
0.615748
20
-0.258268
40
0.010000
0
INSERT
8
0
2
EPAD
10
0.615748
20
-0.283268
41
0.019685
42
0.019685
0
CIRCLE
8
0
10
0.615748
20
-0.283268
40
0.010000
0
INSERT
8
0
2
EPAD
10
0.615748
20
-0.308268
41
0.019685
42
0.019685
0
CIRCLE
8
0
10
0.615748
20
-0.308268
40
0.010000
0
INSERT
8
0
2
EPAD
10
0.615748
20
-0.333268
41
0.019685
42
0.019685
0
CIRCLE
8
0
10
0.615748
20
-0.333268
40
0.010000
0
INSERT
8
0
2
EPAD
10
0.590748
20
-0.158268
41
0.019685
42
0.019685
0
CIRCLE
8
0
10
0.590748
20
-0.158268
40
0.010000
0
INSERT
8
0
2
EPAD
10
0.590748
20
-0.183268
41
0.019685
42
0.019685
0
CIRCLE
8
0
10
0.590748
20
-0.183268
40
0.010000
0
INSERT
8
0
2
EPAD
10
0.590748
20
-0.208268
41
0.019685
42
0.019685
0
CIRCLE
8
0
10
0.590748
20
-0.208268
40
0.010000
0
INSERT
8
0
2
EPAD
10
0.590748
20
-0.233268
41
0.019685
42
0.019685
0
CIRCLE
8
0
10
0.590748
20
-0.233268
40
0.010000
0
INSERT
8
0
2
EPAD
10
0.590748
20
-0.258268
41
0.019685
42
0.019685
0
CIRCLE
8
0
10
0.590748
20
-0.258268
40
0.010000
0
INSERT
8
0
2
EPAD
10
0.590748
20
-0.283268
41
0.019685
42
0.019685
0
CIRCLE
8
0
10
0.590748
20
-0.283268
40
0.010000
0
INSERT
8
0
2
EPAD
10
0.590748
20
-0.308268
41
0.019685
42
0.019685
0
CIRCLE
8
0
10
0.590748
20
-0.308268
40
0.010000
0
INSERT
8
0
2
EPAD
10
0.590748
20
-0.333268
41
0.019685
42
0.019685
0
CIRCLE
8
0
10
0.590748
20
-0.333268
40
0.010000
0
INSERT
8
0
2
EPAD
10
0.465748
20
-0.008268
41
0.019685
42
0.019685
0
CIRCLE
8
0
10
0.465748
20
-0.008268
40
0.010000
0
INSERT
8
0
2
EPAD
10
0.515748
20
-0.008268
41
0.019685
42
0.019685
0
CIRCLE
8
0
10
0.515748
20
-0.008268
40
0.010000
0
INSERT
8
0
2
EPAD
10
0.565748
20
-0.008268
41
0.019685
42
0.019685
0
CIRCLE
8
0
10
0.565748
20
-0.008268
40
0.010000
0
INSERT
8
0
2
EPAD
10
0.615748
20
-0.008268
41
0.019685
42
0.019685
0
CIRCLE
8
0
10
0.615748
20
-0.008268
40
0.010000
0
INSERT
8
0
2
EPAD
10
0.615748
20
-0.058268
41
0.019685
42
0.019685
0
CIRCLE
8
0
10
0.615748
20
-0.058268
40
0.010000
0
INSERT
8
0
2
EPAD
10
0.565748
20
-0.058268
41
0.019685
42
0.019685
0
CIRCLE
8
0
10
0.565748
20
-0.058268
40
0.010000
0
INSERT
8
0
2
EPAD
10
0.615748
20
-0.108268
41
0.019685
42
0.019685
0
CIRCLE
8
0
10
0.615748
20
-0.108268
40
0.010000
0
INSERT
8
0
2
EPAD
10
-0.559252
20
-0.283268
41
0.019685
42
0.019685
0
CIRCLE
8
0
10
-0.559252
20
-0.283268
40
0.010000
0
INSERT
8
0
2
EPAD
10
-0.584252
20
-0.283268
41
0.019685
42
0.019685
0
CIRCLE
8
0
10
-0.584252
20
-0.283268
40
0.010000
0
INSERT
8
0
2
EPAD
10
-0.609252
20
-0.283268
41
0.019685
42
0.019685
0
CIRCLE
8
0
10
-0.609252
20
-0.283268
40
0.010000
0
INSERT
8
0
2
EPAD
10
-0.609252
20
-0.258268
41
0.019685
42
0.019685
0
CIRCLE
8
0
10
-0.609252
20
-0.258268
40
0.010000
0
INSERT
8
0
2
EPAD
10
-0.584252
20
-0.258268
41
0.019685
42
0.019685
0
CIRCLE
8
0
10
-0.584252
20
-0.258268
40
0.010000
0
INSERT
8
0
2
EPAD
10
-0.459252
20
-0.283268
41
0.019685
42
0.019685
0
CIRCLE
8
0
10
-0.459252
20
-0.283268
40
0.010000
0
INSERT
8
0
2
EPAD
10
-0.484252
20
-0.283268
41
0.019685
42
0.019685
0
CIRCLE
8
0
10
-0.484252
20
-0.283268
40
0.010000
0
INSERT
8
0
2
EPAD
10
-0.484252
20
-0.258268
41
0.019685
42
0.019685
0
CIRCLE
8
0
10
-0.484252
20
-0.258268
40
0.010000
0
INSERT
8
0
2
EPAD
10
-0.459252
20
-0.258268
41
0.019685
42
0.019685
0
CIRCLE
8
0
10
-0.459252
20
-0.258268
40
0.010000
0
INSERT
8
0
2
EPAD
10
-0.609252
20
-0.158268
41
0.019685
42
0.019685
0
CIRCLE
8
0
10
-0.609252
20
-0.158268
40
0.010000
0
INSERT
8
0
2
EPAD
10
-0.609252
20
-0.183268
41
0.019685
42
0.019685
0
CIRCLE
8
0
10
-0.609252
20
-0.183268
40
0.010000
0
INSERT
8
0
2
EPAD
10
-0.609252
20
-0.208268
41
0.019685
42
0.019685
0
CIRCLE
8
0
10
-0.609252
20
-0.208268
40
0.010000
0
INSERT
8
0
2
EPAD
10
-0.609252
20
-0.233268
41
0.019685
42
0.019685
0
CIRCLE
8
0
10
-0.609252
20
-0.233268
40
0.010000
0
INSERT
8
0
2
EPAD
10
-0.584252
20
-0.158268
41
0.019685
42
0.019685
0
CIRCLE
8
0
10
-0.584252
20
-0.158268
40
0.010000
0
INSERT
8
0
2
EPAD
10
-0.583655
20
-0.184464
41
0.019685
42
0.019685
0
CIRCLE
8
0
10
-0.583655
20
-0.184464
40
0.010000
0
INSERT
8
0
2
EPAD
10
-0.584252
20
-0.208268
41
0.019685
42
0.019685
0
CIRCLE
8
0
10
-0.584252
20
-0.208268
40
0.010000
0
INSERT
8
0
2
EPAD
10
-0.584252
20
-0.233268
41
0.019685
42
0.019685
0
CIRCLE
8
0
10
-0.584252
20
-0.233268
40
0.010000
0
INSERT
8
0
2
EPAD
10
-0.484673
20
-0.157813
41
0.019685
42
0.019685
0
CIRCLE
8
0
10
-0.484673
20
-0.157813
40
0.010000
0
INSERT
8
0
2
EPAD
10
-0.409252
20
-0.158268
41
0.019685
42
0.019685
0
CIRCLE
8
0
10
-0.409252
20
-0.158268
40
0.010000
0
INSERT
8
0
2
EPAD
10
-0.409252
20
-0.283268
41
0.019685
42
0.019685
0
CIRCLE
8
0
10
-0.409252
20
-0.283268
40
0.010000
0
INSERT
8
0
2
EPAD
10
-0.409252
20
-0.258268
41
0.019685
42
0.019685
0
CIRCLE
8
0
10
-0.409252
20
-0.258268
40
0.010000
0
INSERT
8
0
2
EPAD
10
-0.434252
20
-0.258268
41
0.019685
42
0.019685
0
CIRCLE
8
0
10
-0.434252
20
-0.258268
40
0.010000
0
INSERT
8
0
2
EPAD
10
-0.434252
20
-0.283268
41
0.019685
42
0.019685
0
CIRCLE
8
0
10
-0.434252
20
-0.283268
40
0.010000
0
INSERT
8
0
2
EPAD
10
-0.484252
20
-0.233268
41
0.019685
42
0.019685
0
CIRCLE
8
0
10
-0.484252
20
-0.233268
40
0.010000
0
INSERT
8
0
2
EPAD
10
-0.484252
20
-0.208268
41
0.019685
42
0.019685
0
CIRCLE
8
0
10
-0.484252
20
-0.208268
40
0.010000
0
INSERT
8
0
2
EPAD
10
-0.484252
20
-0.183268
41
0.019685
42
0.019685
0
CIRCLE
8
0
10
-0.484252
20
-0.183268
40
0.010000
0
INSERT
8
0
2
EPAD
10
-0.459252
20
-0.157813
41
0.019685
42
0.019685
0
CIRCLE
8
0
10
-0.459252
20
-0.157813
40
0.010000
0
INSERT
8
0
2
EPAD
10
-0.434252
20
-0.157813
41
0.019685
42
0.019685
0
CIRCLE
8
0
10
-0.434252
20
-0.157813
40
0.010000
0
INSERT
8
0
2
EPAD
10
-0.409252
20
-0.183268
41
0.019685
42
0.019685
0
CIRCLE
8
0
10
-0.409252
20
-0.183268
40
0.010000
0
INSERT
8
0
2
EPAD
10
-0.409252
20
-0.208268
41
0.019685
42
0.019685
0
CIRCLE
8
0
10
-0.409252
20
-0.208268
40
0.010000
0
INSERT
8
0
2
EPAD
10
-0.409252
20
-0.233268
41
0.019685
42
0.019685
0
CIRCLE
8
0
10
-0.409252
20
-0.233268
40
0.010000
0
INSERT
8
0
2
EPAD
10
-0.459252
20
-0.183268
41
0.019685
42
0.019685
0
CIRCLE
8
0
10
-0.459252
20
-0.183268
40
0.010000
0
INSERT
8
0
2
EPAD
10
-0.459252
20
-0.208268
41
0.019685
42
0.019685
0
CIRCLE
8
0
10
-0.459252
20
-0.208268
40
0.010000
0
INSERT
8
0
2
EPAD
10
-0.459252
20
-0.233268
41
0.019685
42
0.019685
0
CIRCLE
8
0
10
-0.459252
20
-0.233268
40
0.010000
0
INSERT
8
0
2
EPAD
10
-0.434252
20
-0.233268
41
0.019685
42
0.019685
0
CIRCLE
8
0
10
-0.434252
20
-0.233268
40
0.010000
0
INSERT
8
0
2
EPAD
10
-0.434252
20
-0.208268
41
0.019685
42
0.019685
0
CIRCLE
8
0
10
-0.434252
20
-0.208268
40
0.010000
0
INSERT
8
0
2
EPAD
10
-0.434252
20
-0.183268
41
0.019685
42
0.019685
0
CIRCLE
8
0
10
-0.434252
20
-0.183268
40
0.010000
0
INSERT
8
0
2
EPAD
10
-0.159252
20
-0.383268
41
0.019685
42
0.019685
0
CIRCLE
8
0
10
-0.159252
20
-0.383268
40
0.010000
0
INSERT
8
0
2
EPAD
10
-0.584252
20
-0.333268
41
0.019685
42
0.019685
0
CIRCLE
8
0
10
-0.584252
20
-0.333268
40
0.010000
0
INSERT
8
0
2
EPAD
10
-0.134252
20
-0.333268
41
0.019685
42
0.019685
0
CIRCLE
8
0
10
-0.134252
20
-0.333268
40
0.010000
0
INSERT
8
0
2
EPAD
10
-0.159252
20
-0.333268
41
0.019685
42
0.019685
0
CIRCLE
8
0
10
-0.159252
20
-0.333268
40
0.010000
0
INSERT
8
0
2
EPAD
10
-0.184252
20
-0.333268
41
0.019685
42
0.019685
0
CIRCLE
8
0
10
-0.184252
20
-0.333268
40
0.010000
0
INSERT
8
0
2
EPAD
10
-0.209252
20
-0.333268
41
0.019685
42
0.019685
0
CIRCLE
8
0
10
-0.209252
20
-0.333268
40
0.010000
0
INSERT
8
0
2
EPAD
10
-0.234252
20
-0.333268
41
0.019685
42
0.019685
0
CIRCLE
8
0
10
-0.234252
20
-0.333268
40
0.010000
0
INSERT
8
0
2
EPAD
10
-0.259252
20
-0.333268
41
0.019685
42
0.019685
0
CIRCLE
8
0
10
-0.259252
20
-0.333268
40
0.010000
0
INSERT
8
0
2
EPAD
10
-0.284252
20
-0.333268
41
0.019685
42
0.019685
0
CIRCLE
8
0
10
-0.284252
20
-0.333268
40
0.010000
0
INSERT
8
0
2
EPAD
10
-0.309252
20
-0.333268
41
0.019685
42
0.019685
0
CIRCLE
8
0
10
-0.309252
20
-0.333268
40
0.010000
0
INSERT
8
0
2
EPAD
10
-0.334252
20
-0.333268
41
0.019685
42
0.019685
0
CIRCLE
8
0
10
-0.334252
20
-0.333268
40
0.010000
0
INSERT
8
0
2
EPAD
10
-0.359252
20
-0.333268
41
0.019685
42
0.019685
0
CIRCLE
8
0
10
-0.359252
20
-0.333268
40
0.010000
0
INSERT
8
0
2
EPAD
10
-0.384252
20
-0.333268
41
0.019685
42
0.019685
0
CIRCLE
8
0
10
-0.384252
20
-0.333268
40
0.010000
0
INSERT
8
0
2
EPAD
10
-0.409252
20
-0.333268
41
0.019685
42
0.019685
0
CIRCLE
8
0
10
-0.409252
20
-0.333268
40
0.010000
0
INSERT
8
0
2
EPAD
10
-0.434252
20
-0.333268
41
0.019685
42
0.019685
0
CIRCLE
8
0
10
-0.434252
20
-0.333268
40
0.010000
0
INSERT
8
0
2
EPAD
10
-0.459252
20
-0.333268
41
0.019685
42
0.019685
0
CIRCLE
8
0
10
-0.459252
20
-0.333268
40
0.010000
0
INSERT
8
0
2
EPAD
10
-0.484252
20
-0.333268
41
0.019685
42
0.019685
0
CIRCLE
8
0
10
-0.484252
20
-0.333268
40
0.010000
0
INSERT
8
0
2
EPAD
10
-0.509252
20
-0.333268
41
0.019685
42
0.019685
0
CIRCLE
8
0
10
-0.509252
20
-0.333268
40
0.010000
0
INSERT
8
0
2
EPAD
10
-0.534252
20
-0.333268
41
0.019685
42
0.019685
0
CIRCLE
8
0
10
-0.534252
20
-0.333268
40
0.010000
0
INSERT
8
0
2
EPAD
10
-0.559252
20
-0.333268
41
0.019685
42
0.019685
0
CIRCLE
8
0
10
-0.559252
20
-0.333268
40
0.010000
0
INSERT
8
0
2
EPAD
10
-0.509252
20
-0.383268
41
0.019685
42
0.019685
0
CIRCLE
8
0
10
-0.509252
20
-0.383268
40
0.010000
0
INSERT
8
0
2
EPAD
10
-0.484252
20
-0.383268
41
0.019685
42
0.019685
0
CIRCLE
8
0
10
-0.484252
20
-0.383268
40
0.010000
0
INSERT
8
0
2
EPAD
10
-0.459252
20
-0.383268
41
0.019685
42
0.019685
0
CIRCLE
8
0
10
-0.459252
20
-0.383268
40
0.010000
0
INSERT
8
0
2
EPAD
10
-0.434252
20
-0.383268
41
0.019685
42
0.019685
0
CIRCLE
8
0
10
-0.434252
20
-0.383268
40
0.010000
0
INSERT
8
0
2
EPAD
10
-0.409252
20
-0.383268
41
0.019685
42
0.019685
0
CIRCLE
8
0
10
-0.409252
20
-0.383268
40
0.010000
0
INSERT
8
0
2
EPAD
10
-0.384252
20
-0.383268
41
0.019685
42
0.019685
0
CIRCLE
8
0
10
-0.384252
20
-0.383268
40
0.010000
0
INSERT
8
0
2
EPAD
10
-0.359252
20
-0.383268
41
0.019685
42
0.019685
0
CIRCLE
8
0
10
-0.359252
20
-0.383268
40
0.010000
0
INSERT
8
0
2
EPAD
10
-0.334252
20
-0.383268
41
0.019685
42
0.019685
0
CIRCLE
8
0
10
-0.334252
20
-0.383268
40
0.010000
0
INSERT
8
0
2
EPAD
10
-0.309252
20
-0.383268
41
0.019685
42
0.019685
0
CIRCLE
8
0
10
-0.309252
20
-0.383268
40
0.010000
0
INSERT
8
0
2
EPAD
10
-0.284252
20
-0.383268
41
0.019685
42
0.019685
0
CIRCLE
8
0
10
-0.284252
20
-0.383268
40
0.010000
0
INSERT
8
0
2
EPAD
10
-0.259252
20
-0.383268
41
0.019685
42
0.019685
0
CIRCLE
8
0
10
-0.259252
20
-0.383268
40
0.010000
0
INSERT
8
0
2
EPAD
10
-0.234252
20
-0.383268
41
0.019685
42
0.019685
0
CIRCLE
8
0
10
-0.234252
20
-0.383268
40
0.010000
0
INSERT
8
0
2
EPAD
10
-0.209252
20
-0.383268
41
0.019685
42
0.019685
0
CIRCLE
8
0
10
-0.209252
20
-0.383268
40
0.010000
0
INSERT
8
0
2
EPAD
10
-0.184252
20
-0.383268
41
0.019685
42
0.019685
0
CIRCLE
8
0
10
-0.184252
20
-0.383268
40
0.010000
0
INSERT
8
0
2
EPAD
10
-0.134252
20
-0.383268
41
0.019685
42
0.019685
0
CIRCLE
8
0
10
-0.134252
20
-0.383268
40
0.010000
0
INSERT
8
0
2
EPAD
10
-0.487104
20
-0.433268
41
0.019685
42
0.019685
0
CIRCLE
8
0
10
-0.487104
20
-0.433268
40
0.010000
0
INSERT
8
0
2
EPAD
10
-0.459252
20
-0.433268
41
0.019685
42
0.019685
0
CIRCLE
8
0
10
-0.459252
20
-0.433268
40
0.010000
0
INSERT
8
0
2
EPAD
10
-0.434252
20
-0.433268
41
0.019685
42
0.019685
0
CIRCLE
8
0
10
-0.434252
20
-0.433268
40
0.010000
0
INSERT
8
0
2
EPAD
10
-0.409252
20
-0.433268
41
0.019685
42
0.019685
0
CIRCLE
8
0
10
-0.409252
20
-0.433268
40
0.010000
0
INSERT
8
0
2
EPAD
10
-0.384252
20
-0.433268
41
0.019685
42
0.019685
0
CIRCLE
8
0
10
-0.384252
20
-0.433268
40
0.010000
0
INSERT
8
0
2
EPAD
10
-0.359252
20
-0.433268
41
0.019685
42
0.019685
0
CIRCLE
8
0
10
-0.359252
20
-0.433268
40
0.010000
0
INSERT
8
0
2
EPAD
10
-0.334252
20
-0.433268
41
0.019685
42
0.019685
0
CIRCLE
8
0
10
-0.334252
20
-0.433268
40
0.010000
0
INSERT
8
0
2
EPAD
10
-0.309252
20
-0.433268
41
0.019685
42
0.019685
0
CIRCLE
8
0
10
-0.309252
20
-0.433268
40
0.010000
0
INSERT
8
0
2
EPAD
10
-0.284252
20
-0.433268
41
0.019685
42
0.019685
0
CIRCLE
8
0
10
-0.284252
20
-0.433268
40
0.010000
0
INSERT
8
0
2
EPAD
10
-0.259252
20
-0.433268
41
0.019685
42
0.019685
0
CIRCLE
8
0
10
-0.259252
20
-0.433268
40
0.010000
0
INSERT
8
0
2
EPAD
10
-0.234252
20
-0.433268
41
0.019685
42
0.019685
0
CIRCLE
8
0
10
-0.234252
20
-0.433268
40
0.010000
0
INSERT
8
0
2
EPAD
10
-0.209252
20
-0.433268
41
0.019685
42
0.019685
0
CIRCLE
8
0
10
-0.209252
20
-0.433268
40
0.010000
0
INSERT
8
0
2
EPAD
10
-0.184252
20
-0.433268
41
0.019685
42
0.019685
0
CIRCLE
8
0
10
-0.184252
20
-0.433268
40
0.010000
0
INSERT
8
0
2
EPAD
10
-0.159252
20
-0.433268
41
0.019685
42
0.019685
0
CIRCLE
8
0
10
-0.159252
20
-0.433268
40
0.010000
0
INSERT
8
0
2
EPAD
10
-0.133344
20
-0.433268
41
0.019685
42
0.019685
0
CIRCLE
8
0
10
-0.133344
20
-0.433268
40
0.010000
0
INSERT
8
0
2
EPAD
10
-0.089409
20
-0.378268
41
0.019685
42
0.019685
0
CIRCLE
8
0
10
-0.089409
20
-0.378268
40
0.010000
0
INSERT
8
0
2
EPAD
10
-0.088396
20
-0.404231
41
0.019685
42
0.019685
0
CIRCLE
8
0
10
-0.088396
20
-0.404231
40
0.010000
0
INSERT
8
0
2
EPAD
10
-0.184252
20
-0.158268
41
0.019685
42
0.019685
0
CIRCLE
8
0
10
-0.184252
20
-0.158268
40
0.010000
0
INSERT
8
0
2
EPAD
10
-0.184252
20
-0.183268
41
0.019685
42
0.019685
0
CIRCLE
8
0
10
-0.184252
20
-0.183268
40
0.010000
0
INSERT
8
0
2
EPAD
10
-0.184252
20
-0.208268
41
0.019685
42
0.019685
0
CIRCLE
8
0
10
-0.184252
20
-0.208268
40
0.010000
0
INSERT
8
0
2
EPAD
10
-0.184252
20
-0.233268
41
0.019685
42
0.019685
0
CIRCLE
8
0
10
-0.184252
20
-0.233268
40
0.010000
0
INSERT
8
0
2
EPAD
10
-0.184252
20
-0.258268
41
0.019685
42
0.019685
0
CIRCLE
8
0
10
-0.184252
20
-0.258268
40
0.010000
0
INSERT
8
0
2
EPAD
10
-0.184252
20
-0.283268
41
0.019685
42
0.019685
0
CIRCLE
8
0
10
-0.184252
20
-0.283268
40
0.010000
0
INSERT
8
0
2
EPAD
10
-0.184252
20
-0.308268
41
0.019685
42
0.019685
0
CIRCLE
8
0
10
-0.184252
20
-0.308268
40
0.010000
0
INSERT
8
0
2
EPAD
10
-0.159252
20
-0.308268
41
0.019685
42
0.019685
0
CIRCLE
8
0
10
-0.159252
20
-0.308268
40
0.010000
0
INSERT
8
0
2
EPAD
10
-0.159252
20
-0.283268
41
0.019685
42
0.019685
0
CIRCLE
8
0
10
-0.159252
20
-0.283268
40
0.010000
0
INSERT
8
0
2
EPAD
10
-0.159252
20
-0.258268
41
0.019685
42
0.019685
0
CIRCLE
8
0
10
-0.159252
20
-0.258268
40
0.010000
0
INSERT
8
0
2
EPAD
10
-0.116220
20
-0.215236
41
0.019685
42
0.019685
0
CIRCLE
8
0
10
-0.116220
20
-0.215236
40
0.010000
0
INSERT
8
0
2
EPAD
10
-0.116220
20
-0.255428
41
0.019685
42
0.019685
0
CIRCLE
8
0
10
-0.116220
20
-0.255428
40
0.010000
0
INSERT
8
0
2
EPAD
10
-0.116220
20
-0.283268
41
0.019685
42
0.019685
0
CIRCLE
8
0
10
-0.116220
20
-0.283268
40
0.010000
0
INSERT
8
0
2
EPAD
10
-0.116220
20
-0.308268
41
0.019685
42
0.019685
0
CIRCLE
8
0
10
-0.116220
20
-0.308268
40
0.010000
0
INSERT
8
0
2
EPAD
10
-0.089582
20
-0.358268
41
0.019685
42
0.019685
0
CIRCLE
8
0
10
-0.089582
20
-0.358268
40
0.010000
0
INSERT
8
0
2
EPAD
10
-0.135568
20
-0.308268
41
0.019685
42
0.019685
0
CIRCLE
8
0
10
-0.135568
20
-0.308268
40
0.010000
0
INSERT
8
0
2
EPAD
10
-0.135568
20
-0.283268
41
0.019685
42
0.019685
0
CIRCLE
8
0
10
-0.135568
20
-0.283268
40
0.010000
0
INSERT
8
0
2
EPAD
10
-0.184252
20
0.366732
41
0.019685
42
0.019685
0
CIRCLE
8
0
10
-0.184252
20
0.366732
40
0.010000
0
INSERT
8
0
2
EPAD
10
-0.184252
20
0.341732
41
0.019685
42
0.019685
0
CIRCLE
8
0
10
-0.184252
20
0.341732
40
0.010000
0
INSERT
8
0
2
EPAD
10
-0.184252
20
0.316732
41
0.019685
42
0.019685
0
CIRCLE
8
0
10
-0.184252
20
0.316732
40
0.010000
0
INSERT
8
0
2
EPAD
10
-0.184252
20
0.291732
41
0.019685
42
0.019685
0
CIRCLE
8
0
10
-0.184252
20
0.291732
40
0.010000
0
INSERT
8
0
2
EPAD
10
-0.184252
20
0.266732
41
0.019685
42
0.019685
0
CIRCLE
8
0
10
-0.184252
20
0.266732
40
0.010000
0
INSERT
8
0
2
EPAD
10
-0.159252
20
0.266732
41
0.019685
42
0.019685
0
CIRCLE
8
0
10
-0.159252
20
0.266732
40
0.010000
0
INSERT
8
0
2
EPAD
10
-0.159252
20
0.291732
41
0.019685
42
0.019685
0
CIRCLE
8
0
10
-0.159252
20
0.291732
40
0.010000
0
INSERT
8
0
2
EPAD
10
-0.159252
20
0.316732
41
0.019685
42
0.019685
0
CIRCLE
8
0
10
-0.159252
20
0.316732
40
0.010000
0
INSERT
8
0
2
EPAD
10
-0.159252
20
0.341732
41
0.019685
42
0.019685
0
CIRCLE
8
0
10
-0.159252
20
0.341732
40
0.010000
0
INSERT
8
0
2
EPAD
10
-0.184252
20
0.241732
41
0.019685
42
0.019685
0
CIRCLE
8
0
10
-0.184252
20
0.241732
40
0.010000
0
INSERT
8
0
2
EPAD
10
-0.159252
20
0.241732
41
0.019685
42
0.019685
0
CIRCLE
8
0
10
-0.159252
20
0.241732
40
0.010000
0
INSERT
8
0
2
EPAD
10
-0.134252
20
0.241732
41
0.019685
42
0.019685
0
CIRCLE
8
0
10
-0.134252
20
0.241732
40
0.010000
0
INSERT
8
0
2
EPAD
10
-0.109252
20
0.241732
41
0.019685
42
0.019685
0
CIRCLE
8
0
10
-0.109252
20
0.241732
40
0.010000
0
INSERT
8
0
2
EPAD
10
-0.084252
20
0.241732
41
0.019685
42
0.019685
0
CIRCLE
8
0
10
-0.084252
20
0.241732
40
0.010000
0
INSERT
8
0
2
EPAD
10
-0.084252
20
0.216732
41
0.019685
42
0.019685
0
CIRCLE
8
0
10
-0.084252
20
0.216732
40
0.010000
0
INSERT
8
0
2
EPAD
10
-0.109252
20
0.216732
41
0.019685
42
0.019685
0
CIRCLE
8
0
10
-0.109252
20
0.216732
40
0.010000
0
INSERT
8
0
2
EPAD
10
-0.134252
20
0.216732
41
0.019685
42
0.019685
0
CIRCLE
8
0
10
-0.134252
20
0.216732
40
0.010000
0
INSERT
8
0
2
EPAD
10
-0.159252
20
0.216732
41
0.019685
42
0.019685
0
CIRCLE
8
0
10
-0.159252
20
0.216732
40
0.010000
0
INSERT
8
0
2
EPAD
10
-0.184252
20
0.216732
41
0.019685
42
0.019685
0
CIRCLE
8
0
10
-0.184252
20
0.216732
40
0.010000
0
INSERT
8
0
2
EPAD
10
-0.184252
20
0.191732
41
0.019685
42
0.019685
0
CIRCLE
8
0
10
-0.184252
20
0.191732
40
0.010000
0
INSERT
8
0
2
EPAD
10
-0.159252
20
0.191732
41
0.019685
42
0.019685
0
CIRCLE
8
0
10
-0.159252
20
0.191732
40
0.010000
0
INSERT
8
0
2
EPAD
10
-0.134252
20
0.191732
41
0.019685
42
0.019685
0
CIRCLE
8
0
10
-0.134252
20
0.191732
40
0.010000
0
INSERT
8
0
2
EPAD
10
-0.109252
20
0.191732
41
0.019685
42
0.019685
0
CIRCLE
8
0
10
-0.109252
20
0.191732
40
0.010000
0
INSERT
8
0
2
EPAD
10
-0.084252
20
0.191732
41
0.019685
42
0.019685
0
CIRCLE
8
0
10
-0.084252
20
0.191732
40
0.010000
0
INSERT
8
0
2
EPAD
10
-0.084252
20
0.166732
41
0.019685
42
0.019685
0
CIRCLE
8
0
10
-0.084252
20
0.166732
40
0.010000
0
INSERT
8
0
2
EPAD
10
-0.109252
20
0.166732
41
0.019685
42
0.019685
0
CIRCLE
8
0
10
-0.109252
20
0.166732
40
0.010000
0
INSERT
8
0
2
EPAD
10
-0.134252
20
0.166732
41
0.019685
42
0.019685
0
CIRCLE
8
0
10
-0.134252
20
0.166732
40
0.010000
0
INSERT
8
0
2
EPAD
10
-0.184252
20
0.166732
41
0.019685
42
0.019685
0
CIRCLE
8
0
10
-0.184252
20
0.166732
40
0.010000
0
INSERT
8
0
2
EPAD
10
-0.184252
20
0.141732
41
0.019685
42
0.019685
0
CIRCLE
8
0
10
-0.184252
20
0.141732
40
0.010000
0
INSERT
8
0
2
EPAD
10
-0.159252
20
0.166732
41
0.019685
42
0.019685
0
CIRCLE
8
0
10
-0.159252
20
0.166732
40
0.010000
0
INSERT
8
0
2
EPAD
10
-0.159252
20
0.141732
41
0.019685
42
0.019685
0
CIRCLE
8
0
10
-0.159252
20
0.141732
40
0.010000
0
INSERT
8
0
2
EPAD
10
-0.134252
20
0.141732
41
0.019685
42
0.019685
0
CIRCLE
8
0
10
-0.134252
20
0.141732
40
0.010000
0
INSERT
8
0
2
EPAD
10
-0.109252
20
0.141732
41
0.019685
42
0.019685
0
CIRCLE
8
0
10
-0.109252
20
0.141732
40
0.010000
0
INSERT
8
0
2
EPAD
10
-0.084252
20
0.141732
41
0.019685
42
0.019685
0
CIRCLE
8
0
10
-0.084252
20
0.141732
40
0.010000
0
INSERT
8
0
2
EPAD
10
-0.034252
20
0.216732
41
0.019685
42
0.019685
0
CIRCLE
8
0
10
-0.034252
20
0.216732
40
0.010000
0
INSERT
8
0
2
EPAD
10
-0.034252
20
0.191732
41
0.019685
42
0.019685
0
CIRCLE
8
0
10
-0.034252
20
0.191732
40
0.010000
0
INSERT
8
0
2
EPAD
10
-0.034252
20
0.166732
41
0.019685
42
0.019685
0
CIRCLE
8
0
10
-0.034252
20
0.166732
40
0.010000
0
INSERT
8
0
2
EPAD
10
-0.034252
20
0.141732
41
0.019685
42
0.019685
0
CIRCLE
8
0
10
-0.034252
20
0.141732
40
0.010000
0
INSERT
8
0
2
EPAD
10
-0.034252
20
0.116732
41
0.019685
42
0.019685
0
CIRCLE
8
0
10
-0.034252
20
0.116732
40
0.010000
0
INSERT
8
0
2
EPAD
10
-0.034252
20
0.091732
41
0.019685
42
0.019685
0
CIRCLE
8
0
10
-0.034252
20
0.091732
40
0.010000
0
INSERT
8
0
2
EPAD
10
-0.034252
20
0.066732
41
0.019685
42
0.019685
0
CIRCLE
8
0
10
-0.034252
20
0.066732
40
0.010000
0
INSERT
8
0
2
EPAD
10
-0.034252
20
0.041732
41
0.019685
42
0.019685
0
CIRCLE
8
0
10
-0.034252
20
0.041732
40
0.010000
0
INSERT
8
0
2
EPAD
10
-0.034252
20
0.016732
41
0.019685
42
0.019685
0
CIRCLE
8
0
10
-0.034252
20
0.016732
40
0.010000
0
INSERT
8
0
2
EPAD
10
-0.034252
20
-0.008268
41
0.019685
42
0.019685
0
CIRCLE
8
0
10
-0.034252
20
-0.008268
40
0.010000
0
INSERT
8
0
2
EPAD
10
-0.034252
20
-0.033268
41
0.019685
42
0.019685
0
CIRCLE
8
0
10
-0.034252
20
-0.033268
40
0.010000
0
INSERT
8
0
2
EPAD
10
-0.059252
20
-0.033268
41
0.019685
42
0.019685
0
CIRCLE
8
0
10
-0.059252
20
-0.033268
40
0.010000
0
INSERT
8
0
2
EPAD
10
-0.059252
20
-0.008268
41
0.019685
42
0.019685
0
CIRCLE
8
0
10
-0.059252
20
-0.008268
40
0.010000
0
INSERT
8
0
2
EPAD
10
-0.059252
20
0.016732
41
0.019685
42
0.019685
0
CIRCLE
8
0
10
-0.059252
20
0.016732
40
0.010000
0
INSERT
8
0
2
EPAD
10
-0.059252
20
0.041732
41
0.019685
42
0.019685
0
CIRCLE
8
0
10
-0.059252
20
0.041732
40
0.010000
0
INSERT
8
0
2
EPAD
10
-0.059252
20
0.066732
41
0.019685
42
0.019685
0
CIRCLE
8
0
10
-0.059252
20
0.066732
40
0.010000
0
INSERT
8
0
2
EPAD
10
-0.059252
20
0.091732
41
0.019685
42
0.019685
0
CIRCLE
8
0
10
-0.059252
20
0.091732
40
0.010000
0
INSERT
8
0
2
EPAD
10
-0.059252
20
0.116732
41
0.019685
42
0.019685
0
CIRCLE
8
0
10
-0.059252
20
0.116732
40
0.010000
0
INSERT
8
0
2
EPAD
10
-0.059252
20
0.141732
41
0.019685
42
0.019685
0
CIRCLE
8
0
10
-0.059252
20
0.141732
40
0.010000
0
INSERT
8
0
2
EPAD
10
-0.059252
20
0.166732
41
0.019685
42
0.019685
0
CIRCLE
8
0
10
-0.059252
20
0.166732
40
0.010000
0
INSERT
8
0
2
EPAD
10
-0.059252
20
0.188992
41
0.019685
42
0.019685
0
CIRCLE
8
0
10
-0.059252
20
0.188992
40
0.010000
0
INSERT
8
0
2
EPAD
10
-0.059252
20
0.216732
41
0.019685
42
0.019685
0
CIRCLE
8
0
10
-0.059252
20
0.216732
40
0.010000
0
INSERT
8
0
2
EPAD
10
-0.359252
20
0.191732
41
0.019685
42
0.019685
0
CIRCLE
8
0
10
-0.359252
20
0.191732
40
0.010000
0
INSERT
8
0
2
EPAD
10
-0.309252
20
0.191732
41
0.019685
42
0.019685
0
CIRCLE
8
0
10
-0.309252
20
0.191732
40
0.010000
0
INSERT
8
0
2
EPAD
10
-0.259252
20
0.191732
41
0.019685
42
0.019685
0
CIRCLE
8
0
10
-0.259252
20
0.191732
40
0.010000
0
INSERT
8
0
2
EPAD
10
-0.309252
20
0.166732
41
0.019685
42
0.019685
0
CIRCLE
8
0
10
-0.309252
20
0.166732
40
0.010000
0
INSERT
8
0
2
EPAD
10
-0.259252
20
0.166732
41
0.019685
42
0.019685
0
CIRCLE
8
0
10
-0.259252
20
0.166732
40
0.010000
0
INSERT
8
0
2
EPAD
10
-0.209252
20
0.166732
41
0.019685
42
0.019685
0
CIRCLE
8
0
10
-0.209252
20
0.166732
40
0.010000
0
INSERT
8
0
2
EPAD
10
-0.209252
20
0.191732
41
0.019685
42
0.019685
0
CIRCLE
8
0
10
-0.209252
20
0.191732
40
0.010000
0
INSERT
8
0
2
EPAD
10
-0.309252
20
0.116732
41
0.019685
42
0.019685
0
CIRCLE
8
0
10
-0.309252
20
0.116732
40
0.010000
0
INSERT
8
0
2
EPAD
10
-0.259252
20
0.116732
41
0.019685
42
0.019685
0
CIRCLE
8
0
10
-0.259252
20
0.116732
40
0.010000
0
INSERT
8
0
2
EPAD
10
-0.209252
20
0.116732
41
0.019685
42
0.019685
0
CIRCLE
8
0
10
-0.209252
20
0.116732
40
0.010000
0
INSERT
8
0
2
EPAD
10
-0.159252
20
0.116732
41
0.019685
42
0.019685
0
CIRCLE
8
0
10
-0.159252
20
0.116732
40
0.010000
0
INSERT
8
0
2
EPAD
10
-0.109252
20
0.116732
41
0.019685
42
0.019685
0
CIRCLE
8
0
10
-0.109252
20
0.116732
40
0.010000
0
INSERT
8
0
2
EPAD
10
-0.309252
20
0.066732
41
0.019685
42
0.019685
0
CIRCLE
8
0
10
-0.309252
20
0.066732
40
0.010000
0
INSERT
8
0
2
EPAD
10
-0.259252
20
0.066732
41
0.019685
42
0.019685
0
CIRCLE
8
0
10
-0.259252
20
0.066732
40
0.010000
0
INSERT
8
0
2
EPAD
10
-0.206220
20
0.066732
41
0.019685
42
0.019685
0
CIRCLE
8
0
10
-0.206220
20
0.066732
40
0.010000
0
INSERT
8
0
2
EPAD
10
-0.159252
20
0.066732
41
0.019685
42
0.019685
0
CIRCLE
8
0
10
-0.159252
20
0.066732
40
0.010000
0
INSERT
8
0
2
EPAD
10
-0.109252
20
0.065465
41
0.019685
42
0.019685
0
CIRCLE
8
0
10
-0.109252
20
0.065465
40
0.010000
0
INSERT
8
0
2
EPAD
10
-0.109252
20
0.016732
41
0.019685
42
0.019685
0
CIRCLE
8
0
10
-0.109252
20
0.016732
40
0.010000
0
INSERT
8
0
2
EPAD
10
-0.159252
20
0.016732
41
0.019685
42
0.019685
0
CIRCLE
8
0
10
-0.159252
20
0.016732
40
0.010000
0
INSERT
8
0
2
EPAD
10
-0.209252
20
0.016732
41
0.019685
42
0.019685
0
CIRCLE
8
0
10
-0.209252
20
0.016732
40
0.010000
0
INSERT
8
0
2
EPAD
10
-0.259252
20
0.016732
41
0.019685
42
0.019685
0
CIRCLE
8
0
10
-0.259252
20
0.016732
40
0.010000
0
INSERT
8
0
2
EPAD
10
-0.309252
20
0.016732
41
0.019685
42
0.019685
0
CIRCLE
8
0
10
-0.309252
20
0.016732
40
0.010000
0
INSERT
8
0
2
EPAD
10
-0.309252
20
-0.033268
41
0.019685
42
0.019685
0
CIRCLE
8
0
10
-0.309252
20
-0.033268
40
0.010000
0
INSERT
8
0
2
EPAD
10
-0.259252
20
-0.033268
41
0.019685
42
0.019685
0
CIRCLE
8
0
10
-0.259252
20
-0.033268
40
0.010000
0
INSERT
8
0
2
EPAD
10
-0.209252
20
-0.033268
41
0.019685
42
0.019685
0
CIRCLE
8
0
10
-0.209252
20
-0.033268
40
0.010000
0
INSERT
8
0
2
EPAD
10
-0.159252
20
-0.033268
41
0.019685
42
0.019685
0
CIRCLE
8
0
10
-0.159252
20
-0.033268
40
0.010000
0
INSERT
8
0
2
EPAD
10
-0.109252
20
-0.033268
41
0.019685
42
0.019685
0
CIRCLE
8
0
10
-0.109252
20
-0.033268
40
0.010000
0
INSERT
8
0
2
EPAD
10
-0.584252
20
0.191732
41
0.019685
42
0.019685
0
CIRCLE
8
0
10
-0.584252
20
0.191732
40
0.010000
0
INSERT
8
0
2
EPAD
10
-0.584252
20
0.141732
41
0.019685
42
0.019685
0
CIRCLE
8
0
10
-0.584252
20
0.141732
40
0.010000
0
INSERT
8
0
2
EPAD
10
-0.534252
20
0.141732
41
0.019685
42
0.019685
0
CIRCLE
8
0
10
-0.534252
20
0.141732
40
0.010000
0
INSERT
8
0
2
EPAD
10
-0.534252
20
0.191732
41
0.019685
42
0.019685
0
CIRCLE
8
0
10
-0.534252
20
0.191732
40
0.010000
0
INSERT
8
0
2
EPAD
10
-0.584252
20
0.091732
41
0.019685
42
0.019685
0
CIRCLE
8
0
10
-0.584252
20
0.091732
40
0.010000
0
INSERT
8
0
2
EPAD
10
-0.534252
20
0.091732
41
0.019685
42
0.019685
0
CIRCLE
8
0
10
-0.534252
20
0.091732
40
0.010000
0
INSERT
8
0
2
EPAD
10
-0.534252
20
0.041732
41
0.019685
42
0.019685
0
CIRCLE
8
0
10
-0.534252
20
0.041732
40
0.010000
0
INSERT
8
0
2
EPAD
10
-0.584252
20
0.041732
41
0.019685
42
0.019685
0
CIRCLE
8
0
10
-0.584252
20
0.041732
40
0.010000
0
INSERT
8
0
2
EPAD
10
-0.584252
20
-0.008268
41
0.019685
42
0.019685
0
CIRCLE
8
0
10
-0.584252
20
-0.008268
40
0.010000
0
INSERT
8
0
2
EPAD
10
-0.534252
20
-0.008268
41
0.019685
42
0.019685
0
CIRCLE
8
0
10
-0.534252
20
-0.008268
40
0.010000
0
INSERT
8
0
2
EPAD
10
-0.584252
20
-0.045011
41
0.019685
42
0.019685
0
CIRCLE
8
0
10
-0.584252
20
-0.045011
40
0.010000
0
INSERT
8
0
2
EPAD
10
-0.534252
20
-0.045011
41
0.019685
42
0.019685
0
CIRCLE
8
0
10
-0.534252
20
-0.045011
40
0.010000
0
INSERT
8
0
2
EPAD
10
-0.734252
20
0.166732
41
0.019685
42
0.019685
0
CIRCLE
8
0
10
-0.734252
20
0.166732
40
0.010000
0
INSERT
8
0
2
EPAD
10
-0.734252
20
0.116732
41
0.019685
42
0.019685
0
CIRCLE
8
0
10
-0.734252
20
0.116732
40
0.010000
0
INSERT
8
0
2
EPAD
10
-0.734252
20
0.066732
41
0.019685
42
0.019685
0
CIRCLE
8
0
10
-0.734252
20
0.066732
40
0.010000
0
INSERT
8
0
2
EPAD
10
-0.734252
20
0.016732
41
0.019685
42
0.019685
0
CIRCLE
8
0
10
-0.734252
20
0.016732
40
0.010000
0
INSERT
8
0
2
EPAD
10
-0.734252
20
-0.045011
41
0.019685
42
0.019685
0
CIRCLE
8
0
10
-0.734252
20
-0.045011
40
0.010000
0
INSERT
8
0
2
EPAD
10
-0.164705
20
-0.693721
41
0.019685
42
0.019685
0
CIRCLE
8
0
10
-0.164705
20
-0.693721
40
0.010000
0
INSERT
8
0
2
EPAD
10
-0.194252
20
-0.663740
41
0.019685
42
0.019685
0
CIRCLE
8
0
10
-0.194252
20
-0.663740
40
0.010000
0
INSERT
8
0
2
EPAD
10
-0.134252
20
-0.663740
41
0.019685
42
0.019685
0
CIRCLE
8
0
10
-0.134252
20
-0.663740
40
0.010000
0
INSERT
8
0
2
EPAD
10
-0.164252
20
-0.663740
41
0.019685
42
0.019685
0
CIRCLE
8
0
10
-0.164252
20
-0.663740
40
0.010000
0
INSERT
8
0
2
EPAD
10
-0.194252
20
-0.693740
41
0.019685
42
0.019685
0
CIRCLE
8
0
10
-0.194252
20
-0.693740
40
0.010000
0
INSERT
8
0
2
EPAD
10
-0.134252
20
-0.693740
41
0.019685
42
0.019685
0
CIRCLE
8
0
10
-0.134252
20
-0.693740
40
0.010000
0
INSERT
8
0
2
EPAD
10
-0.194252
20
-0.723740
41
0.019685
42
0.019685
0
CIRCLE
8
0
10
-0.194252
20
-0.723740
40
0.010000
0
INSERT
8
0
2
EPAD
10
-0.164252
20
-0.723740
41
0.019685
42
0.019685
0
CIRCLE
8
0
10
-0.164252
20
-0.723740
40
0.010000
0
INSERT
8
0
2
EPAD
10
-0.134724
20
-0.723702
41
0.019685
42
0.019685
0
CIRCLE
8
0
10
-0.134724
20
-0.723702
40
0.010000
0
INSERT
8
0
2
EPAD
10
0.045748
20
-1.128740
41
0.019685
42
0.019685
0
CIRCLE
8
0
10
0.045748
20
-1.128740
40
0.010000
0
INSERT
8
0
2
EPAD
10
-0.669252
20
1.236260
41
0.019685
42
0.019685
0
CIRCLE
8
0
10
-0.669252
20
1.236260
40
0.010000
0
INSERT
8
0
2
EPAD
10
-0.619252
20
1.236260
41
0.019685
42
0.019685
0
CIRCLE
8
0
10
-0.619252
20
1.236260
40
0.010000
0
INSERT
8
0
2
EPAD
10
-0.569252
20
1.236260
41
0.019685
42
0.019685
0
CIRCLE
8
0
10
-0.569252
20
1.236260
40
0.010000
0
INSERT
8
0
2
EPAD
10
-0.519252
20
1.236260
41
0.019685
42
0.019685
0
CIRCLE
8
0
10
-0.519252
20
1.236260
40
0.010000
0
INSERT
8
0
2
EPAD
10
-0.669252
20
1.186260
41
0.019685
42
0.019685
0
CIRCLE
8
0
10
-0.669252
20
1.186260
40
0.010000
0
INSERT
8
0
2
EPAD
10
-0.669252
20
1.136260
41
0.019685
42
0.019685
0
CIRCLE
8
0
10
-0.669252
20
1.136260
40
0.010000
0
INSERT
8
0
2
EPAD
10
-0.669252
20
1.086260
41
0.019685
42
0.019685
0
CIRCLE
8
0
10
-0.669252
20
1.086260
40
0.010000
0
INSERT
8
0
2
EPAD
10
-0.669252
20
1.036260
41
0.019685
42
0.019685
0
CIRCLE
8
0
10
-0.669252
20
1.036260
40
0.010000
0
INSERT
8
0
2
EPAD
10
-0.669252
20
0.986260
41
0.019685
42
0.019685
0
CIRCLE
8
0
10
-0.669252
20
0.986260
40
0.010000
0
INSERT
8
0
2
EPAD
10
-0.619252
20
1.186260
41
0.019685
42
0.019685
0
CIRCLE
8
0
10
-0.619252
20
1.186260
40
0.010000
0
INSERT
8
0
2
EPAD
10
-0.619252
20
1.136260
41
0.019685
42
0.019685
0
CIRCLE
8
0
10
-0.619252
20
1.136260
40
0.010000
0
INSERT
8
0
2
EPAD
10
-0.619252
20
1.086260
41
0.019685
42
0.019685
0
CIRCLE
8
0
10
-0.619252
20
1.086260
40
0.010000
0
INSERT
8
0
2
EPAD
10
-0.619252
20
1.036260
41
0.019685
42
0.019685
0
CIRCLE
8
0
10
-0.619252
20
1.036260
40
0.010000
0
INSERT
8
0
2
EPAD
10
-0.569252
20
1.036260
41
0.019685
42
0.019685
0
CIRCLE
8
0
10
-0.569252
20
1.036260
40
0.010000
0
INSERT
8
0
2
EPAD
10
-0.569252
20
1.086260
41
0.019685
42
0.019685
0
CIRCLE
8
0
10
-0.569252
20
1.086260
40
0.010000
0
INSERT
8
0
2
EPAD
10
-0.569252
20
1.136260
41
0.019685
42
0.019685
0
CIRCLE
8
0
10
-0.569252
20
1.136260
40
0.010000
0
INSERT
8
0
2
EPAD
10
-0.569252
20
1.186260
41
0.019685
42
0.019685
0
CIRCLE
8
0
10
-0.569252
20
1.186260
40
0.010000
0
INSERT
8
0
2
EPAD
10
-0.519252
20
1.186260
41
0.019685
42
0.019685
0
CIRCLE
8
0
10
-0.519252
20
1.186260
40
0.010000
0
INSERT
8
0
2
EPAD
10
-0.519252
20
1.136260
41
0.019685
42
0.019685
0
CIRCLE
8
0
10
-0.519252
20
1.136260
40
0.010000
0
INSERT
8
0
2
EPAD
10
-0.519252
20
1.086260
41
0.019685
42
0.019685
0
CIRCLE
8
0
10
-0.519252
20
1.086260
40
0.010000
0
INSERT
8
0
2
EPAD
10
-0.519252
20
1.036260
41
0.019685
42
0.019685
0
CIRCLE
8
0
10
-0.519252
20
1.036260
40
0.010000
0
INSERT
8
0
2
EPAD
10
-0.669252
20
0.936260
41
0.019685
42
0.019685
0
CIRCLE
8
0
10
-0.669252
20
0.936260
40
0.010000
0
INSERT
8
0
2
EPAD
10
-0.669252
20
0.886260
41
0.019685
42
0.019685
0
CIRCLE
8
0
10
-0.669252
20
0.886260
40
0.010000
0
INSERT
8
0
2
EPAD
10
-0.619252
20
0.861260
41
0.019685
42
0.019685
0
CIRCLE
8
0
10
-0.619252
20
0.861260
40
0.010000
0
INSERT
8
0
2
EPAD
10
-0.569252
20
0.861260
41
0.019685
42
0.019685
0
CIRCLE
8
0
10
-0.569252
20
0.861260
40
0.010000
0
INSERT
8
0
2
EPAD
10
-0.519252
20
0.886260
41
0.019685
42
0.019685
0
CIRCLE
8
0
10
-0.519252
20
0.886260
40
0.010000
0
INSERT
8
0
2
EPAD
10
-0.519252
20
0.936260
41
0.019685
42
0.019685
0
CIRCLE
8
0
10
-0.519252
20
0.936260
40
0.010000
0
INSERT
8
0
2
EPAD
10
-0.519252
20
0.986260
41
0.019685
42
0.019685
0
CIRCLE
8
0
10
-0.519252
20
0.986260
40
0.010000
0
INSERT
8
0
2
EPAD
10
-0.369252
20
1.236260
41
0.019685
42
0.019685
0
CIRCLE
8
0
10
-0.369252
20
1.236260
40
0.010000
0
INSERT
8
0
2
EPAD
10
-0.319252
20
1.236260
41
0.019685
42
0.019685
0
CIRCLE
8
0
10
-0.319252
20
1.236260
40
0.010000
0
INSERT
8
0
2
EPAD
10
-0.319252
20
1.186260
41
0.019685
42
0.019685
0
CIRCLE
8
0
10
-0.319252
20
1.186260
40
0.010000
0
INSERT
8
0
2
EPAD
10
-0.369252
20
1.186260
41
0.019685
42
0.019685
0
CIRCLE
8
0
10
-0.369252
20
1.186260
40
0.010000
0
INSERT
8
0
2
EPAD
10
-0.369252
20
1.136260
41
0.019685
42
0.019685
0
CIRCLE
8
0
10
-0.369252
20
1.136260
40
0.010000
0
INSERT
8
0
2
EPAD
10
-0.319252
20
1.136260
41
0.019685
42
0.019685
0
CIRCLE
8
0
10
-0.319252
20
1.136260
40
0.010000
0
INSERT
8
0
2
EPAD
10
-0.319252
20
1.086260
41
0.019685
42
0.019685
0
CIRCLE
8
0
10
-0.319252
20
1.086260
40
0.010000
0
INSERT
8
0
2
EPAD
10
-0.369252
20
1.086260
41
0.019685
42
0.019685
0
CIRCLE
8
0
10
-0.369252
20
1.086260
40
0.010000
0
INSERT
8
0
2
EPAD
10
-0.369252
20
1.036260
41
0.019685
42
0.019685
0
CIRCLE
8
0
10
-0.369252
20
1.036260
40
0.010000
0
INSERT
8
0
2
EPAD
10
-0.319252
20
1.036260
41
0.019685
42
0.019685
0
CIRCLE
8
0
10
-0.319252
20
1.036260
40
0.010000
0
INSERT
8
0
2
EPAD
10
-0.269252
20
1.036260
41
0.019685
42
0.019685
0
CIRCLE
8
0
10
-0.269252
20
1.036260
40
0.010000
0
INSERT
8
0
2
EPAD
10
-0.269252
20
1.086260
41
0.019685
42
0.019685
0
CIRCLE
8
0
10
-0.269252
20
1.086260
40
0.010000
0
INSERT
8
0
2
EPAD
10
-0.269252
20
1.136260
41
0.019685
42
0.019685
0
CIRCLE
8
0
10
-0.269252
20
1.136260
40
0.010000
0
INSERT
8
0
2
EPAD
10
-0.269252
20
1.186260
41
0.019685
42
0.019685
0
CIRCLE
8
0
10
-0.269252
20
1.186260
40
0.010000
0
INSERT
8
0
2
EPAD
10
-0.269252
20
1.236260
41
0.019685
42
0.019685
0
CIRCLE
8
0
10
-0.269252
20
1.236260
40
0.010000
0
INSERT
8
0
2
EPAD
10
-0.219252
20
1.236260
41
0.019685
42
0.019685
0
CIRCLE
8
0
10
-0.219252
20
1.236260
40
0.010000
0
INSERT
8
0
2
EPAD
10
-0.219252
20
1.186260
41
0.019685
42
0.019685
0
CIRCLE
8
0
10
-0.219252
20
1.186260
40
0.010000
0
INSERT
8
0
2
EPAD
10
-0.219252
20
1.136260
41
0.019685
42
0.019685
0
CIRCLE
8
0
10
-0.219252
20
1.136260
40
0.010000
0
INSERT
8
0
2
EPAD
10
-0.219252
20
1.086260
41
0.019685
42
0.019685
0
CIRCLE
8
0
10
-0.219252
20
1.086260
40
0.010000
0
INSERT
8
0
2
EPAD
10
-0.219252
20
1.036260
41
0.019685
42
0.019685
0
CIRCLE
8
0
10
-0.219252
20
1.036260
40
0.010000
0
INSERT
8
0
2
EPAD
10
-0.369252
20
0.986260
41
0.019685
42
0.019685
0
CIRCLE
8
0
10
-0.369252
20
0.986260
40
0.010000
0
INSERT
8
0
2
EPAD
10
-0.219252
20
0.986260
41
0.019685
42
0.019685
0
CIRCLE
8
0
10
-0.219252
20
0.986260
40
0.010000
0
INSERT
8
0
2
EPAD
10
-0.369252
20
0.936260
41
0.019685
42
0.019685
0
CIRCLE
8
0
10
-0.369252
20
0.936260
40
0.010000
0
INSERT
8
0
2
EPAD
10
-0.219252
20
0.936260
41
0.019685
42
0.019685
0
CIRCLE
8
0
10
-0.219252
20
0.936260
40
0.010000
0
INSERT
8
0
2
EPAD
10
-0.219252
20
0.886260
41
0.019685
42
0.019685
0
CIRCLE
8
0
10
-0.219252
20
0.886260
40
0.010000
0
INSERT
8
0
2
EPAD
10
-0.369252
20
0.886260
41
0.019685
42
0.019685
0
CIRCLE
8
0
10
-0.369252
20
0.886260
40
0.010000
0
INSERT
8
0
2
EPAD
10
-0.319252
20
0.861260
41
0.019685
42
0.019685
0
CIRCLE
8
0
10
-0.319252
20
0.861260
40
0.010000
0
INSERT
8
0
2
EPAD
10
-0.269252
20
0.861260
41
0.019685
42
0.019685
0
CIRCLE
8
0
10
-0.269252
20
0.861260
40
0.010000
0
INSERT
8
0
2
EPAD
10
-0.094252
20
1.236260
41
0.019685
42
0.019685
0
CIRCLE
8
0
10
-0.094252
20
1.236260
40
0.010000
0
INSERT
8
0
2
EPAD
10
-0.044252
20
1.236260
41
0.019685
42
0.019685
0
CIRCLE
8
0
10
-0.044252
20
1.236260
40
0.010000
0
INSERT
8
0
2
EPAD
10
-0.044252
20
1.186260
41
0.019685
42
0.019685
0
CIRCLE
8
0
10
-0.044252
20
1.186260
40
0.010000
0
INSERT
8
0
2
EPAD
10
-0.044252
20
1.136260
41
0.019685
42
0.019685
0
CIRCLE
8
0
10
-0.044252
20
1.136260
40
0.010000
0
INSERT
8
0
2
EPAD
10
-0.044252
20
1.086260
41
0.019685
42
0.019685
0
CIRCLE
8
0
10
-0.044252
20
1.086260
40
0.010000
0
INSERT
8
0
2
EPAD
10
-0.044252
20
1.036260
41
0.019685
42
0.019685
0
CIRCLE
8
0
10
-0.044252
20
1.036260
40
0.010000
0
INSERT
8
0
2
EPAD
10
-0.094252
20
1.036260
41
0.019685
42
0.019685
0
CIRCLE
8
0
10
-0.094252
20
1.036260
40
0.010000
0
INSERT
8
0
2
EPAD
10
-0.094252
20
1.086260
41
0.019685
42
0.019685
0
CIRCLE
8
0
10
-0.094252
20
1.086260
40
0.010000
0
INSERT
8
0
2
EPAD
10
-0.094252
20
1.136260
41
0.019685
42
0.019685
0
CIRCLE
8
0
10
-0.094252
20
1.136260
40
0.010000
0
INSERT
8
0
2
EPAD
10
-0.094252
20
1.186260
41
0.019685
42
0.019685
0
CIRCLE
8
0
10
-0.094252
20
1.186260
40
0.010000
0
INSERT
8
0
2
EPAD
10
0.030748
20
1.236260
41
0.019685
42
0.019685
0
CIRCLE
8
0
10
0.030748
20
1.236260
40
0.010000
0
INSERT
8
0
2
EPAD
10
0.080748
20
1.236260
41
0.019685
42
0.019685
0
CIRCLE
8
0
10
0.080748
20
1.236260
40
0.010000
0
INSERT
8
0
2
EPAD
10
0.080748
20
1.186260
41
0.019685
42
0.019685
0
CIRCLE
8
0
10
0.080748
20
1.186260
40
0.010000
0
INSERT
8
0
2
EPAD
10
0.030748
20
1.186260
41
0.019685
42
0.019685
0
CIRCLE
8
0
10
0.030748
20
1.186260
40
0.010000
0
INSERT
8
0
2
EPAD
10
0.030748
20
1.136260
41
0.019685
42
0.019685
0
CIRCLE
8
0
10
0.030748
20
1.136260
40
0.010000
0
INSERT
8
0
2
EPAD
10
0.080748
20
1.136260
41
0.019685
42
0.019685
0
CIRCLE
8
0
10
0.080748
20
1.136260
40
0.010000
0
INSERT
8
0
2
EPAD
10
0.080748
20
1.086260
41
0.019685
42
0.019685
0
CIRCLE
8
0
10
0.080748
20
1.086260
40
0.010000
0
INSERT
8
0
2
EPAD
10
0.030748
20
1.086260
41
0.019685
42
0.019685
0
CIRCLE
8
0
10
0.030748
20
1.086260
40
0.010000
0
INSERT
8
0
2
EPAD
10
0.030748
20
1.036260
41
0.019685
42
0.019685
0
CIRCLE
8
0
10
0.030748
20
1.036260
40
0.010000
0
INSERT
8
0
2
EPAD
10
0.080748
20
1.036260
41
0.019685
42
0.019685
0
CIRCLE
8
0
10
0.080748
20
1.036260
40
0.010000
0
INSERT
8
0
2
EPAD
10
0.080748
20
0.986260
41
0.019685
42
0.019685
0
CIRCLE
8
0
10
0.080748
20
0.986260
40
0.010000
0
INSERT
8
0
2
EPAD
10
-0.094252
20
0.986260
41
0.019685
42
0.019685
0
CIRCLE
8
0
10
-0.094252
20
0.986260
40
0.010000
0
INSERT
8
0
2
EPAD
10
-0.094252
20
0.936260
41
0.019685
42
0.019685
0
CIRCLE
8
0
10
-0.094252
20
0.936260
40
0.010000
0
INSERT
8
0
2
EPAD
10
-0.094252
20
0.886260
41
0.019685
42
0.019685
0
CIRCLE
8
0
10
-0.094252
20
0.886260
40
0.010000
0
INSERT
8
0
2
EPAD
10
-0.044252
20
0.861260
41
0.019685
42
0.019685
0
CIRCLE
8
0
10
-0.044252
20
0.861260
40
0.010000
0
INSERT
8
0
2
EPAD
10
0.005748
20
0.861260
41
0.019685
42
0.019685
0
CIRCLE
8
0
10
0.005748
20
0.861260
40
0.010000
0
INSERT
8
0
2
EPAD
10
0.055748
20
0.861260
41
0.019685
42
0.019685
0
CIRCLE
8
0
10
0.055748
20
0.861260
40
0.010000
0
INSERT
8
0
2
EPAD
10
0.080748
20
0.886260
41
0.019685
42
0.019685
0
CIRCLE
8
0
10
0.080748
20
0.886260
40
0.010000
0
INSERT
8
0
2
EPAD
10
0.080748
20
0.936260
41
0.019685
42
0.019685
0
CIRCLE
8
0
10
0.080748
20
0.936260
40
0.010000
0
INSERT
8
0
2
EPAD
10
0.255748
20
1.261260
41
0.019685
42
0.019685
0
CIRCLE
8
0
10
0.255748
20
1.261260
40
0.010000
0
INSERT
8
0
2
EPAD
10
0.330748
20
1.261260
41
0.019685
42
0.019685
0
CIRCLE
8
0
10
0.330748
20
1.261260
40
0.010000
0
INSERT
8
0
2
EPAD
10
0.255748
20
1.211260
41
0.019685
42
0.019685
0
CIRCLE
8
0
10
0.255748
20
1.211260
40
0.010000
0
INSERT
8
0
2
EPAD
10
0.255748
20
1.161260
41
0.019685
42
0.019685
0
CIRCLE
8
0
10
0.255748
20
1.161260
40
0.010000
0
INSERT
8
0
2
EPAD
10
0.330748
20
1.161260
41
0.019685
42
0.019685
0
CIRCLE
8
0
10
0.330748
20
1.161260
40
0.010000
0
INSERT
8
0
2
EPAD
10
0.330748
20
1.211260
41
0.019685
42
0.019685
0
CIRCLE
8
0
10
0.330748
20
1.211260
40
0.010000
0
INSERT
8
0
2
EPAD
10
0.330748
20
1.111260
41
0.019685
42
0.019685
0
CIRCLE
8
0
10
0.330748
20
1.111260
40
0.010000
0
INSERT
8
0
2
EPAD
10
0.255748
20
1.111260
41
0.019685
42
0.019685
0
CIRCLE
8
0
10
0.255748
20
1.111260
40
0.010000
0
INSERT
8
0
2
EPAD
10
0.255748
20
1.061260
41
0.019685
42
0.019685
0
CIRCLE
8
0
10
0.255748
20
1.061260
40
0.010000
0
INSERT
8
0
2
EPAD
10
0.330748
20
1.061260
41
0.019685
42
0.019685
0
CIRCLE
8
0
10
0.330748
20
1.061260
40
0.010000
0
INSERT
8
0
2
EPAD
10
0.405748
20
1.061260
41
0.019685
42
0.019685
0
CIRCLE
8
0
10
0.405748
20
1.061260
40
0.010000
0
INSERT
8
0
2
EPAD
10
0.405748
20
1.111260
41
0.019685
42
0.019685
0
CIRCLE
8
0
10
0.405748
20
1.111260
40
0.010000
0
INSERT
8
0
2
EPAD
10
0.405748
20
1.161260
41
0.019685
42
0.019685
0
CIRCLE
8
0
10
0.405748
20
1.161260
40
0.010000
0
INSERT
8
0
2
EPAD
10
0.405748
20
1.211260
41
0.019685
42
0.019685
0
CIRCLE
8
0
10
0.405748
20
1.211260
40
0.010000
0
INSERT
8
0
2
EPAD
10
0.405748
20
1.261260
41
0.019685
42
0.019685
0
CIRCLE
8
0
10
0.405748
20
1.261260
40
0.010000
0
INSERT
8
0
2
EPAD
10
0.255748
20
1.011260
41
0.019685
42
0.019685
0
CIRCLE
8
0
10
0.255748
20
1.011260
40
0.010000
0
INSERT
8
0
2
EPAD
10
0.405748
20
1.011260
41
0.019685
42
0.019685
0
CIRCLE
8
0
10
0.405748
20
1.011260
40
0.010000
0
INSERT
8
0
2
EPAD
10
0.405748
20
0.961260
41
0.019685
42
0.019685
0
CIRCLE
8
0
10
0.405748
20
0.961260
40
0.010000
0
INSERT
8
0
2
EPAD
10
0.405748
20
0.911260
41
0.019685
42
0.019685
0
CIRCLE
8
0
10
0.405748
20
0.911260
40
0.010000
0
INSERT
8
0
2
EPAD
10
0.355748
20
0.861260
41
0.019685
42
0.019685
0
CIRCLE
8
0
10
0.355748
20
0.861260
40
0.010000
0
INSERT
8
0
2
EPAD
10
0.305748
20
0.861260
41
0.019685
42
0.019685
0
CIRCLE
8
0
10
0.305748
20
0.861260
40
0.010000
0
INSERT
8
0
2
EPAD
10
0.255748
20
0.861260
41
0.019685
42
0.019685
0
CIRCLE
8
0
10
0.255748
20
0.861260
40
0.010000
0
INSERT
8
0
2
EPAD
10
0.405748
20
0.861260
41
0.019685
42
0.019685
0
CIRCLE
8
0
10
0.405748
20
0.861260
40
0.010000
0
INSERT
8
0
2
EPAD
10
-0.666709
20
-1.379677
41
0.019685
42
0.019685
0
CIRCLE
8
0
10
-0.666709
20
-1.379677
40
0.010000
0
INSERT
8
0
2
EPAD
10
-0.623087
20
-1.379677
41
0.019685
42
0.019685
0
CIRCLE
8
0
10
-0.623087
20
-1.379677
40
0.010000
0
INSERT
8
0
2
EPAD
10
-0.579465
20
-1.379677
41
0.019685
42
0.019685
0
CIRCLE
8
0
10
-0.579465
20
-1.379677
40
0.010000
0
INSERT
8
0
2
EPAD
10
-0.535843
20
-1.379677
41
0.019685
42
0.019685
0
CIRCLE
8
0
10
-0.535843
20
-1.379677
40
0.010000
0
INSERT
8
0
2
EPAD
10
-0.688520
20
-1.341900
41
0.019685
42
0.019685
0
CIRCLE
8
0
10
-0.688520
20
-1.341900
40
0.010000
0
INSERT
8
0
2
EPAD
10
-0.644898
20
-1.341900
41
0.019685
42
0.019685
0
CIRCLE
8
0
10
-0.644898
20
-1.341900
40
0.010000
0
INSERT
8
0
2
EPAD
10
-0.601276
20
-1.341900
41
0.019685
42
0.019685
0
CIRCLE
8
0
10
-0.601276
20
-1.341900
40
0.010000
0
INSERT
8
0
2
EPAD
10
-0.557654
20
-1.341900
41
0.019685
42
0.019685
0
CIRCLE
8
0
10
-0.557654
20
-1.341900
40
0.010000
0
INSERT
8
0
2
EPAD
10
-0.514031
20
-1.341900
41
0.019685
42
0.019685
0
CIRCLE
8
0
10
-0.514031
20
-1.341900
40
0.010000
0
INSERT
8
0
2
EPAD
10
-0.666709
20
-1.304122
41
0.019685
42
0.019685
0
CIRCLE
8
0
10
-0.666709
20
-1.304122
40
0.010000
0
INSERT
8
0
2
EPAD
10
-0.623087
20
-1.304122
41
0.019685
42
0.019685
0
CIRCLE
8
0
10
-0.623087
20
-1.304122
40
0.010000
0
INSERT
8
0
2
EPAD
10
-0.579465
20
-1.304122
41
0.019685
42
0.019685
0
CIRCLE
8
0
10
-0.579465
20
-1.304122
40
0.010000
0
INSERT
8
0
2
EPAD
10
-0.535843
20
-1.304122
41
0.019685
42
0.019685
0
CIRCLE
8
0
10
-0.535843
20
-1.304122
40
0.010000
0
INSERT
8
0
2
EPAD
10
-0.492220
20
-1.304122
41
0.019685
42
0.019685
0
CIRCLE
8
0
10
-0.492220
20
-1.304122
40
0.010000
0
INSERT
8
0
2
EPAD
10
-0.688520
20
-1.266345
41
0.019685
42
0.019685
0
CIRCLE
8
0
10
-0.688520
20
-1.266345
40
0.010000
0
INSERT
8
0
2
EPAD
10
-0.644898
20
-1.266345
41
0.019685
42
0.019685
0
CIRCLE
8
0
10
-0.644898
20
-1.266345
40
0.010000
0
INSERT
8
0
2
EPAD
10
-0.601276
20
-1.266345
41
0.019685
42
0.019685
0
CIRCLE
8
0
10
-0.601276
20
-1.266345
40
0.010000
0
INSERT
8
0
2
EPAD
10
-0.557654
20
-1.266345
41
0.019685
42
0.019685
0
CIRCLE
8
0
10
-0.557654
20
-1.266345
40
0.010000
0
INSERT
8
0
2
EPAD
10
-0.514031
20
-1.266345
41
0.019685
42
0.019685
0
CIRCLE
8
0
10
-0.514031
20
-1.266345
40
0.010000
0
INSERT
8
0
2
EPAD
10
-0.710331
20
-1.228567
41
0.019685
42
0.019685
0
CIRCLE
8
0
10
-0.710331
20
-1.228567
40
0.010000
0
INSERT
8
0
2
EPAD
10
-0.666709
20
-1.228567
41
0.019685
42
0.019685
0
CIRCLE
8
0
10
-0.666709
20
-1.228567
40
0.010000
0
INSERT
8
0
2
EPAD
10
-0.623087
20
-1.228567
41
0.019685
42
0.019685
0
CIRCLE
8
0
10
-0.623087
20
-1.228567
40
0.010000
0
INSERT
8
0
2
EPAD
10
-0.579465
20
-1.228567
41
0.019685
42
0.019685
0
CIRCLE
8
0
10
-0.579465
20
-1.228567
40
0.010000
0
INSERT
8
0
2
EPAD
10
-0.535843
20
-1.228567
41
0.019685
42
0.019685
0
CIRCLE
8
0
10
-0.535843
20
-1.228567
40
0.010000
0
INSERT
8
0
2
EPAD
10
-0.732142
20
-1.190789
41
0.019685
42
0.019685
0
CIRCLE
8
0
10
-0.732142
20
-1.190789
40
0.010000
0
INSERT
8
0
2
EPAD
10
-0.688520
20
-1.190789
41
0.019685
42
0.019685
0
CIRCLE
8
0
10
-0.688520
20
-1.190789
40
0.010000
0
INSERT
8
0
2
EPAD
10
-0.644898
20
-1.190789
41
0.019685
42
0.019685
0
CIRCLE
8
0
10
-0.644898
20
-1.190789
40
0.010000
0
INSERT
8
0
2
EPAD
10
-0.601276
20
-1.190789
41
0.019685
42
0.019685
0
CIRCLE
8
0
10
-0.601276
20
-1.190789
40
0.010000
0
INSERT
8
0
2
EPAD
10
-0.557654
20
-1.190789
41
0.019685
42
0.019685
0
CIRCLE
8
0
10
-0.557654
20
-1.190789
40
0.010000
0
INSERT
8
0
2
EPAD
10
-0.514031
20
-1.190789
41
0.019685
42
0.019685
0
CIRCLE
8
0
10
-0.514031
20
-1.190789
40
0.010000
0
INSERT
8
0
2
EPAD
10
-0.928441
20
-1.153012
41
0.019685
42
0.019685
0
CIRCLE
8
0
10
-0.928441
20
-1.153012
40
0.010000
0
INSERT
8
0
2
EPAD
10
-0.753953
20
-1.153012
41
0.019685
42
0.019685
0
CIRCLE
8
0
10
-0.753953
20
-1.153012
40
0.010000
0
INSERT
8
0
2
EPAD
10
-0.710331
20
-1.153012
41
0.019685
42
0.019685
0
CIRCLE
8
0
10
-0.710331
20
-1.153012
40
0.010000
0
INSERT
8
0
2
EPAD
10
-0.666709
20
-1.153012
41
0.019685
42
0.019685
0
CIRCLE
8
0
10
-0.666709
20
-1.153012
40
0.010000
0
INSERT
8
0
2
EPAD
10
-0.623087
20
-1.153012
41
0.019685
42
0.019685
0
CIRCLE
8
0
10
-0.623087
20
-1.153012
40
0.010000
0
INSERT
8
0
2
EPAD
10
-0.906630
20
-0.435238
41
0.019685
42
0.019685
0
CIRCLE
8
0
10
-0.906630
20
-0.435238
40
0.010000
0
INSERT
8
0
2
EPAD
10
0.554709
20
-0.095240
41
0.019685
42
0.019685
0
CIRCLE
8
0
10
0.554709
20
-0.095240
40
0.010000
0
INSERT
8
0
2
EPAD
10
0.532898
20
-0.057463
41
0.019685
42
0.019685
0
CIRCLE
8
0
10
0.532898
20
-0.057463
40
0.010000
0
INSERT
8
0
2
EPAD
10
0.489276
20
0.320313
41
0.019685
42
0.019685
0
CIRCLE
8
0
10
0.489276
20
0.320313
40
0.010000
0
INSERT
8
0
2
EPAD
10
0.532898
20
0.320313
41
0.019685
42
0.019685
0
CIRCLE
8
0
10
0.532898
20
0.320313
40
0.010000
0
INSERT
8
0
2
EPAD
10
0.620142
20
0.320313
41
0.019685
42
0.019685
0
CIRCLE
8
0
10
0.620142
20
0.320313
40
0.010000
0
INSERT
8
0
2
EPAD
10
0.467465
20
0.358091
41
0.019685
42
0.019685
0
CIRCLE
8
0
10
0.467465
20
0.358091
40
0.010000
0
INSERT
8
0
2
EPAD
10
0.511087
20
0.358091
41
0.019685
42
0.019685
0
CIRCLE
8
0
10
0.511087
20
0.358091
40
0.010000
0
INSERT
8
0
2
EPAD
10
0.598331
20
0.358091
41
0.019685
42
0.019685
0
CIRCLE
8
0
10
0.598331
20
0.358091
40
0.010000
0
INSERT
8
0
2
EPAD
10
0.641953
20
0.358091
41
0.019685
42
0.019685
0
CIRCLE
8
0
10
0.641953
20
0.358091
40
0.010000
0
INSERT
8
0
2
EPAD
10
0.140299
20
0.849199
41
0.019685
42
0.019685
0
CIRCLE
8
0
10
0.140299
20
0.849199
40
0.010000
0
INSERT
8
0
2
EPAD
10
0.118488
20
0.886976
41
0.019685
42
0.019685
0
CIRCLE
8
0
10
0.118488
20
0.886976
40
0.010000
0
INSERT
8
0
2
EPAD
10
0.162110
20
0.886976
41
0.019685
42
0.019685
0
CIRCLE
8
0
10
0.162110
20
0.886976
40
0.010000
0
INSERT
8
0
2
EPAD
10
0.140299
20
0.924754
41
0.019685
42
0.019685
0
CIRCLE
8
0
10
0.140299
20
0.924754
40
0.010000
0
INSERT
8
0
2
EPAD
10
0.118488
20
0.962532
41
0.019685
42
0.019685
0
CIRCLE
8
0
10
0.118488
20
0.962532
40
0.010000
0
INSERT
8
0
2
EPAD
10
0.162110
20
0.962532
41
0.019685
42
0.019685
0
CIRCLE
8
0
10
0.162110
20
0.962532
40
0.010000
0
INSERT
8
0
2
EPAD
10
0.140299
20
1.000309
41
0.019685
42
0.019685
0
CIRCLE
8
0
10
0.140299
20
1.000309
40
0.010000
0
INSERT
8
0
2
EPAD
10
-0.012378
20
1.038087
41
0.019685
42
0.019685
0
CIRCLE
8
0
10
-0.012378
20
1.038087
40
0.010000
0
INSERT
8
0
2
EPAD
10
0.118488
20
1.038087
41
0.019685
42
0.019685
0
CIRCLE
8
0
10
0.118488
20
1.038087
40
0.010000
0
INSERT
8
0
2
EPAD
10
0.162110
20
1.038087
41
0.019685
42
0.019685
0
CIRCLE
8
0
10
0.162110
20
1.038087
40
0.010000
0
INSERT
8
0
2
EPAD
10
0.140299
20
1.075864
41
0.019685
42
0.019685
0
CIRCLE
8
0
10
0.140299
20
1.075864
40
0.010000
0
INSERT
8
0
2
EPAD
10
-0.012378
20
1.113642
41
0.019685
42
0.019685
0
CIRCLE
8
0
10
-0.012378
20
1.113642
40
0.010000
0
INSERT
8
0
2
EPAD
10
0.118488
20
1.113642
41
0.019685
42
0.019685
0
CIRCLE
8
0
10
0.118488
20
1.113642
40
0.010000
0
INSERT
8
0
2
EPAD
10
0.162110
20
1.113642
41
0.019685
42
0.019685
0
CIRCLE
8
0
10
0.162110
20
1.113642
40
0.010000
0
INSERT
8
0
2
EPAD
10
0.140299
20
1.151419
41
0.019685
42
0.019685
0
CIRCLE
8
0
10
0.140299
20
1.151419
40
0.010000
0
INSERT
8
0
2
EPAD
10
-0.012378
20
1.189197
41
0.019685
42
0.019685
0
CIRCLE
8
0
10
-0.012378
20
1.189197
40
0.010000
0
INSERT
8
0
2
EPAD
10
0.118488
20
1.189197
41
0.019685
42
0.019685
0
CIRCLE
8
0
10
0.118488
20
1.189197
40
0.010000
0
INSERT
8
0
2
EPAD
10
0.162110
20
1.189197
41
0.019685
42
0.019685
0
CIRCLE
8
0
10
0.162110
20
1.189197
40
0.010000
0
INSERT
8
0
2
EPAD
10
0.140299
20
1.226974
41
0.019685
42
0.019685
0
CIRCLE
8
0
10
0.140299
20
1.226974
40
0.010000
0
INSERT
8
0
2
EPAD
10
-0.012378
20
1.264752
41
0.019685
42
0.019685
0
CIRCLE
8
0
10
-0.012378
20
1.264752
40
0.010000
0
INSERT
8
0
2
EPAD
10
0.118488
20
1.264752
41
0.019685
42
0.019685
0
CIRCLE
8
0
10
0.118488
20
1.264752
40
0.010000
0
INSERT
8
0
2
EPAD
10
0.162110
20
1.264752
41
0.019685
42
0.019685
0
CIRCLE
8
0
10
0.162110
20
1.264752
40
0.010000
0
INSERT
8
0
2
EPAD
10
-0.077811
20
1.302530
41
0.019685
42
0.019685
0
CIRCLE
8
0
10
-0.077811
20
1.302530
40
0.010000
0
INSERT
8
0
2
EPAD
10
-0.034189
20
1.302530
41
0.019685
42
0.019685
0
CIRCLE
8
0
10
-0.034189
20
1.302530
40
0.010000
0
INSERT
8
0
2
EPAD
10
0.009433
20
1.302530
41
0.019685
42
0.019685
0
CIRCLE
8
0
10
0.009433
20
1.302530
40
0.010000
0
INSERT
8
0
2
EPAD
10
0.053055
20
1.302530
41
0.019685
42
0.019685
0
CIRCLE
8
0
10
0.053055
20
1.302530
40
0.010000
0
INSERT
8
0
2
EPAD
10
0.096677
20
1.302530
41
0.019685
42
0.019685
0
CIRCLE
8
0
10
0.096677
20
1.302530
40
0.010000
0
INSERT
8
0
2
EPAD
10
0.140299
20
1.302530
41
0.019685
42
0.019685
0
CIRCLE
8
0
10
0.140299
20
1.302530
40
0.010000
0
INSERT
8
0
2
EPAD
10
-0.099622
20
1.340307
41
0.019685
42
0.019685
0
CIRCLE
8
0
10
-0.099622
20
1.340307
40
0.010000
0
INSERT
8
0
2
EPAD
10
-0.056000
20
1.340307
41
0.019685
42
0.019685
0
CIRCLE
8
0
10
-0.056000
20
1.340307
40
0.010000
0
INSERT
8
0
2
EPAD
10
-0.012378
20
1.340307
41
0.019685
42
0.019685
0
CIRCLE
8
0
10
-0.012378
20
1.340307
40
0.010000
0
INSERT
8
0
2
EPAD
10
0.031244
20
1.340307
41
0.019685
42
0.019685
0
CIRCLE
8
0
10
0.031244
20
1.340307
40
0.010000
0
INSERT
8
0
2
EPAD
10
0.074866
20
1.340307
41
0.019685
42
0.019685
0
CIRCLE
8
0
10
0.074866
20
1.340307
40
0.010000
0
INSERT
8
0
2
EPAD
10
0.118488
20
1.340307
41
0.019685
42
0.019685
0
CIRCLE
8
0
10
0.118488
20
1.340307
40
0.010000
0
INSERT
8
0
2
EPAD
10
0.162110
20
1.340307
41
0.019685
42
0.019685
0
CIRCLE
8
0
10
0.162110
20
1.340307
40
0.010000
0
INSERT
8
0
2
EPAD
10
-0.492220
20
-1.368137
41
0.019685
42
0.019685
0
CIRCLE
8
0
10
-0.492220
20
-1.368137
40
0.010000
0
INSERT
8
0
2
EPAD
10
-0.448598
20
-1.368137
41
0.019685
42
0.019685
0
CIRCLE
8
0
10
-0.448598
20
-1.368137
40
0.010000
0
INSERT
8
0
2
EPAD
10
-0.404976
20
-1.368137
41
0.019685
42
0.019685
0
CIRCLE
8
0
10
-0.404976
20
-1.368137
40
0.010000
0
INSERT
8
0
2
EPAD
10
0.074866
20
-1.368137
41
0.019685
42
0.019685
0
CIRCLE
8
0
10
0.074866
20
-1.368137
40
0.010000
0
INSERT
8
0
2
EPAD
10
0.118488
20
-1.368137
41
0.019685
42
0.019685
0
CIRCLE
8
0
10
0.118488
20
-1.368137
40
0.010000
0
INSERT
8
0
2
EPAD
10
0.162110
20
-1.368137
41
0.019685
42
0.019685
0
CIRCLE
8
0
10
0.162110
20
-1.368137
40
0.010000
0
INSERT
8
0
2
EPAD
10
0.205732
20
-1.368137
41
0.019685
42
0.019685
0
CIRCLE
8
0
10
0.205732
20
-1.368137
40
0.010000
0
INSERT
8
0
2
EPAD
10
0.249354
20
-1.368137
41
0.019685
42
0.019685
0
CIRCLE
8
0
10
0.249354
20
-1.368137
40
0.010000
0
INSERT
8
0
2
EPAD
10
0.292976
20
-1.368137
41
0.019685
42
0.019685
0
CIRCLE
8
0
10
0.292976
20
-1.368137
40
0.010000
0
INSERT
8
0
2
EPAD
10
0.336598
20
-1.368137
41
0.019685
42
0.019685
0
CIRCLE
8
0
10
0.336598
20
-1.368137
40
0.010000
0
INSERT
8
0
2
EPAD
10
0.380220
20
-1.368137
41
0.019685
42
0.019685
0
CIRCLE
8
0
10
0.380220
20
-1.368137
40
0.010000
0
INSERT
8
0
2
EPAD
10
0.423843
20
-1.368137
41
0.019685
42
0.019685
0
CIRCLE
8
0
10
0.423843
20
-1.368137
40
0.010000
0
INSERT
8
0
2
EPAD
10
-0.470409
20
-1.330359
41
0.019685
42
0.019685
0
CIRCLE
8
0
10
-0.470409
20
-1.330359
40
0.010000
0
INSERT
8
0
2
EPAD
10
0.140299
20
-1.330359
41
0.019685
42
0.019685
0
CIRCLE
8
0
10
0.140299
20
-1.330359
40
0.010000
0
INSERT
8
0
2
EPAD
10
0.183921
20
-1.330359
41
0.019685
42
0.019685
0
CIRCLE
8
0
10
0.183921
20
-1.330359
40
0.010000
0
INSERT
8
0
2
EPAD
10
0.227543
20
-1.330359
41
0.019685
42
0.019685
0
CIRCLE
8
0
10
0.227543
20
-1.330359
40
0.010000
0
INSERT
8
0
2
EPAD
10
0.271165
20
-1.330359
41
0.019685
42
0.019685
0
CIRCLE
8
0
10
0.271165
20
-1.330359
40
0.010000
0
INSERT
8
0
2
EPAD
10
0.314787
20
-1.330359
41
0.019685
42
0.019685
0
CIRCLE
8
0
10
0.314787
20
-1.330359
40
0.010000
0
INSERT
8
0
2
EPAD
10
0.358409
20
-1.330359
41
0.019685
42
0.019685
0
CIRCLE
8
0
10
0.358409
20
-1.330359
40
0.010000
0
INSERT
8
0
2
EPAD
10
0.402031
20
-1.330359
41
0.019685
42
0.019685
0
CIRCLE
8
0
10
0.402031
20
-1.330359
40
0.010000
0
INSERT
8
0
2
EPAD
10
0.118488
20
-1.292581
41
0.019685
42
0.019685
0
CIRCLE
8
0
10
0.118488
20
-1.292581
40
0.010000
0
INSERT
8
0
2
EPAD
10
0.162110
20
-1.292581
41
0.019685
42
0.019685
0
CIRCLE
8
0
10
0.162110
20
-1.292581
40
0.010000
0
INSERT
8
0
2
EPAD
10
0.205732
20
-1.292581
41
0.019685
42
0.019685
0
CIRCLE
8
0
10
0.205732
20
-1.292581
40
0.010000
0
INSERT
8
0
2
EPAD
10
0.249354
20
-1.292581
41
0.019685
42
0.019685
0
CIRCLE
8
0
10
0.249354
20
-1.292581
40
0.010000
0
INSERT
8
0
2
EPAD
10
0.292976
20
-1.292581
41
0.019685
42
0.019685
0
CIRCLE
8
0
10
0.292976
20
-1.292581
40
0.010000
0
INSERT
8
0
2
EPAD
10
0.336598
20
-1.292581
41
0.019685
42
0.019685
0
CIRCLE
8
0
10
0.336598
20
-1.292581
40
0.010000
0
INSERT
8
0
2
EPAD
10
0.380220
20
-1.292581
41
0.019685
42
0.019685
0
CIRCLE
8
0
10
0.380220
20
-1.292581
40
0.010000
0
INSERT
8
0
2
EPAD
10
0.140299
20
-1.254804
41
0.019685
42
0.019685
0
CIRCLE
8
0
10
0.140299
20
-1.254804
40
0.010000
0
INSERT
8
0
2
EPAD
10
0.183921
20
-1.254804
41
0.019685
42
0.019685
0
CIRCLE
8
0
10
0.183921
20
-1.254804
40
0.010000
0
INSERT
8
0
2
EPAD
10
0.227543
20
-1.254804
41
0.019685
42
0.019685
0
CIRCLE
8
0
10
0.227543
20
-1.254804
40
0.010000
0
INSERT
8
0
2
EPAD
10
0.271165
20
-1.254804
41
0.019685
42
0.019685
0
CIRCLE
8
0
10
0.271165
20
-1.254804
40
0.010000
0
INSERT
8
0
2
EPAD
10
0.314787
20
-1.254804
41
0.019685
42
0.019685
0
CIRCLE
8
0
10
0.314787
20
-1.254804
40
0.010000
0
INSERT
8
0
2
EPAD
10
0.358409
20
-1.254804
41
0.019685
42
0.019685
0
CIRCLE
8
0
10
0.358409
20
-1.254804
40
0.010000
0
INSERT
8
0
2
EPAD
10
0.402031
20
-1.254804
41
0.019685
42
0.019685
0
CIRCLE
8
0
10
0.402031
20
-1.254804
40
0.010000
0
INSERT
8
0
2
EPAD
10
0.380220
20
-1.217026
41
0.019685
42
0.019685
0
CIRCLE
8
0
10
0.380220
20
-1.217026
40
0.010000
0
INSERT
8
0
2
EPAD
10
0.423843
20
-1.217026
41
0.019685
42
0.019685
0
CIRCLE
8
0
10
0.423843
20
-1.217026
40
0.010000
0
INSERT
8
0
2
EPAD
10
0.402031
20
-1.179249
41
0.019685
42
0.019685
0
CIRCLE
8
0
10
0.402031
20
-1.179249
40
0.010000
0
INSERT
8
0
2
EPAD
10
0.445654
20
-1.179249
41
0.019685
42
0.019685
0
CIRCLE
8
0
10
0.445654
20
-1.179249
40
0.010000
0
INSERT
8
0
2
EPAD
10
0.489276
20
-1.179249
41
0.019685
42
0.019685
0
CIRCLE
8
0
10
0.489276
20
-1.179249
40
0.010000
0
INSERT
8
0
2
EPAD
10
0.467465
20
-1.141471
41
0.019685
42
0.019685
0
CIRCLE
8
0
10
0.467465
20
-1.141471
40
0.010000
0
INSERT
8
0
2
EPAD
10
0.511087
20
-1.141471
41
0.019685
42
0.019685
0
CIRCLE
8
0
10
0.511087
20
-1.141471
40
0.010000
0
INSERT
8
0
2
EPAD
10
0.554709
20
-1.141471
41
0.019685
42
0.019685
0
CIRCLE
8
0
10
0.554709
20
-1.141471
40
0.010000
0
INSERT
8
0
2
EPAD
10
0.598331
20
-1.141471
41
0.019685
42
0.019685
0
CIRCLE
8
0
10
0.598331
20
-1.141471
40
0.010000
0
INSERT
8
0
2
EPAD
10
0.641953
20
-1.141471
41
0.019685
42
0.019685
0
CIRCLE
8
0
10
0.641953
20
-1.141471
40
0.010000
0
INSERT
8
0
2
EPAD
10
0.489276
20
-1.103694
41
0.019685
42
0.019685
0
CIRCLE
8
0
10
0.489276
20
-1.103694
40
0.010000
0
INSERT
8
0
2
EPAD
10
0.532898
20
-1.103694
41
0.019685
42
0.019685
0
CIRCLE
8
0
10
0.532898
20
-1.103694
40
0.010000
0
INSERT
8
0
2
EPAD
10
0.576520
20
-1.103694
41
0.019685
42
0.019685
0
CIRCLE
8
0
10
0.576520
20
-1.103694
40
0.010000
0
INSERT
8
0
2
EPAD
10
0.620142
20
-1.103694
41
0.019685
42
0.019685
0
CIRCLE
8
0
10
0.620142
20
-1.103694
40
0.010000
0
INSERT
8
0
2
EPAD
10
0.576520
20
0.029633
41
0.019685
42
0.019685
0
CIRCLE
8
0
10
0.576520
20
0.029633
40
0.010000
0
INSERT
8
0
2
EPAD
10
0.620142
20
0.029633
41
0.019685
42
0.019685
0
CIRCLE
8
0
10
0.620142
20
0.029633
40
0.010000
0
INSERT
8
0
2
EPAD
10
-0.056000
20
0.898517
41
0.019685
42
0.019685
0
CIRCLE
8
0
10
-0.056000
20
0.898517
40
0.010000
0
INSERT
8
0
2
EPAD
10
-0.099622
20
1.276293
41
0.019685
42
0.019685
0
CIRCLE
8
0
10
-0.099622
20
1.276293
40
0.010000
0
INSERT
8
0
2
EPAD
10
-0.056000
20
1.276293
41
0.019685
42
0.019685
0
CIRCLE
8
0
10
-0.056000
20
1.276293
40
0.010000
0
INSERT
8
0
2
EPAD
10
0.031244
20
1.276293
41
0.019685
42
0.019685
0
CIRCLE
8
0
10
0.031244
20
1.276293
40
0.010000
0
INSERT
8
0
2
EPAD
10
0.074866
20
1.276293
41
0.019685
42
0.019685
0
CIRCLE
8
0
10
0.074866
20
1.276293
40
0.010000
0
INSERT
8
0
2
EPAD
10
-0.019263
20
-0.858268
41
0.019685
42
0.019685
0
CIRCLE
8
0
10
-0.019263
20
-0.858268
40
0.010000
0
INSERT
8
0
2
EPAD
10
0.152974
20
-0.654339
41
0.019685
42
0.019685
0
CIRCLE
8
0
10
0.152974
20
-0.654339
40
0.010000
0
INSERT
8
0
2
EPAD
10
0.521614
20
-0.651324
41
0.019685
42
0.019685
0
CIRCLE
8
0
10
0.521614
20
-0.651324
40
0.010000
0
INSERT
8
0
2
EPAD
10
0.424913
20
-0.667251
41
0.019685
42
0.019685
0
CIRCLE
8
0
10
0.424913
20
-0.667251
40
0.010000
0
INSERT
8
0
2
EPAD
10
0.189284
20
-0.606949
41
0.019685
42
0.019685
0
CIRCLE
8
0
10
0.189284
20
-0.606949
40
0.010000
0
INSERT
8
0
2
EPAD
10
0.321927
20
-0.591923
41
0.019685
42
0.019685
0
CIRCLE
8
0
10
0.321927
20
-0.591923
40
0.010000
0
INSERT
8
0
2
EPAD
10
0.108327
20
-0.974538
41
0.019685
42
0.019685
0
CIRCLE
8
0
10
0.108327
20
-0.974538
40
0.010000
0
INSERT
8
0
2
EPAD
10
-0.054201
20
-0.584111
41
0.019685
42
0.019685
0
CIRCLE
8
0
10
-0.054201
20
-0.584111
40
0.010000
0
INSERT
8
0
2
EPAD
10
-0.514126
20
-0.880591
41
0.019685
42
0.019685
0
CIRCLE
8
0
10
-0.514126
20
-0.880591
40
0.010000
0
INSERT
8
0
2
EPAD
10
0.045748
20
-0.713268
41
0.019685
42
0.019685
0
CIRCLE
8
0
10
0.045748
20
-0.713268
40
0.010000
0
INSERT
8
0
2
EPAD
10
-0.785279
20
-0.724205
41
0.019685
42
0.019685
0
CIRCLE
8
0
10
-0.785279
20
-0.724205
40
0.010000
0
INSERT
8
0
2
EPAD
10
0.035651
20
-0.751424
41
0.019685
42
0.019685
0
CIRCLE
8
0
10
0.035651
20
-0.751424
40
0.010000
0
INSERT
8
0
2
EPAD
10
-0.793535
20
-0.964993
41
0.019685
42
0.019685
0
CIRCLE
8
0
10
-0.793535
20
-0.964993
40
0.010000
0
INSERT
8
0
2
EPAD
10
0.108718
20
-0.889487
41
0.019685
42
0.019685
0
CIRCLE
8
0
10
0.108718
20
-0.889487
40
0.010000
0
INSERT
8
0
2
EPAD
10
-0.691204
20
-0.990043
41
0.019685
42
0.019685
0
CIRCLE
8
0
10
-0.691204
20
-0.990043
40
0.010000
0
INSERT
8
0
2
EPAD
10
0.618925
20
-0.800268
41
0.019685
42
0.019685
0
CIRCLE
8
0
10
0.618925
20
-0.800268
40
0.010000
0
INSERT
8
0
2
EPAD
10
0.605430
20
-0.509254
41
0.019685
42
0.019685
0
CIRCLE
8
0
10
0.605430
20
-0.509254
40
0.010000
0
INSERT
8
0
2
EPAD
10
0.250748
20
-1.093268
41
0.019685
42
0.019685
0
CIRCLE
8
0
10
0.250748
20
-1.093268
40
0.010000
0
INSERT
8
0
2
EPAD
10
0.211921
20
-1.094387
41
0.019685
42
0.019685
0
CIRCLE
8
0
10
0.211921
20
-1.094387
40
0.010000
0
INSERT
8
0
2
EPAD
10
0.295748
20
-0.948268
41
0.019685
42
0.019685
0
CIRCLE
8
0
10
0.295748
20
-0.948268
40
0.010000
0
INSERT
8
0
2
EPAD
10
0.388858
20
-0.765472
41
0.019685
42
0.019685
0
CIRCLE
8
0
10
0.388858
20
-0.765472
40
0.010000
0
INSERT
8
0
2
EPAD
10
-0.126119
20
-0.574740
41
0.019685
42
0.019685
0
CIRCLE
8
0
10
-0.126119
20
-0.574740
40
0.010000
0
INSERT
8
0
2
EPAD
10
0.089455
20
-0.781019
41
0.019685
42
0.019685
0
CIRCLE
8
0
10
0.089455
20
-0.781019
40
0.010000
0
INSERT
8
0
2
EPAD
10
-0.791194
20
1.002042
41
0.019685
42
0.019685
0
CIRCLE
8
0
10
-0.791194
20
1.002042
40
0.010000
0
INSERT
8
0
2
EPAD
10
0.621762
20
-0.644565
41
0.019685
42
0.019685
0
CIRCLE
8
0
10
0.621762
20
-0.644565
40
0.010000
0
INSERT
8
0
2
EPAD
10
-0.484252
20
0.366732
41
0.019685
42
0.019685
0
CIRCLE
8
0
10
-0.484252
20
0.366732
40
0.010000
0
INSERT
8
0
2
EPAD
10
-0.459252
20
0.366732
41
0.019685
42
0.019685
0
CIRCLE
8
0
10
-0.459252
20
0.366732
40
0.010000
0
INSERT
8
0
2
EPAD
10
-0.459252
20
0.241732
41
0.019685
42
0.019685
0
CIRCLE
8
0
10
-0.459252
20
0.241732
40
0.010000
0
INSERT
8
0
2
EPAD
10
-0.484252
20
0.241732
41
0.019685
42
0.019685
0
CIRCLE
8
0
10
-0.484252
20
0.241732
40
0.010000
0
INSERT
8
0
2
EPAD
10
-0.484252
20
0.266732
41
0.019685
42
0.019685
0
CIRCLE
8
0
10
-0.484252
20
0.266732
40
0.010000
0
INSERT
8
0
2
EPAD
10
-0.484252
20
0.291732
41
0.019685
42
0.019685
0
CIRCLE
8
0
10
-0.484252
20
0.291732
40
0.010000
0
INSERT
8
0
2
EPAD
10
-0.484252
20
0.316732
41
0.019685
42
0.019685
0
CIRCLE
8
0
10
-0.484252
20
0.316732
40
0.010000
0
INSERT
8
0
2
EPAD
10
-0.484206
20
0.342485
41
0.019685
42
0.019685
0
CIRCLE
8
0
10
-0.484206
20
0.342485
40
0.010000
0
INSERT
8
0
2
EPAD
10
-0.459252
20
0.341732
41
0.019685
42
0.019685
0
CIRCLE
8
0
10
-0.459252
20
0.341732
40
0.010000
0
INSERT
8
0
2
EPAD
10
-0.459252
20
0.316732
41
0.019685
42
0.019685
0
CIRCLE
8
0
10
-0.459252
20
0.316732
40
0.010000
0
INSERT
8
0
2
EPAD
10
-0.459252
20
0.291732
41
0.019685
42
0.019685
0
CIRCLE
8
0
10
-0.459252
20
0.291732
40
0.010000
0
INSERT
8
0
2
EPAD
10
-0.459252
20
0.266732
41
0.019685
42
0.019685
0
CIRCLE
8
0
10
-0.459252
20
0.266732
40
0.010000
0
INSERT
8
0
2
EPAD
10
0.439169
20
-1.329579
41
0.019685
42
0.019685
0
CIRCLE
8
0
10
0.439169
20
-1.329579
40
0.010000
0
INSERT
8
0
2
EPAD
10
0.417827
20
-1.292613
41
0.019685
42
0.019685
0
CIRCLE
8
0
10
0.417827
20
-1.292613
40
0.010000
0
INSERT
8
0
2
EPAD
10
0.439169
20
-1.255647
41
0.019685
42
0.019685
0
CIRCLE
8
0
10
0.439169
20
-1.255647
40
0.010000
0
INSERT
8
0
2
EPAD
10
0.460512
20
-1.218681
41
0.019685
42
0.019685
0
CIRCLE
8
0
10
0.460512
20
-1.218681
40
0.010000
0
INSERT
8
0
2
EPAD
10
-0.350504
20
-1.144748
41
0.019685
42
0.019685
0
CIRCLE
8
0
10
-0.350504
20
-1.144748
40
0.010000
0
INSERT
8
0
2
EPAD
10
-0.329161
20
-1.107782
41
0.019685
42
0.019685
0
CIRCLE
8
0
10
-0.329161
20
-1.107782
40
0.010000
0
INSERT
8
0
2
EPAD
10
0.652595
20
-1.107782
41
0.019685
42
0.019685
0
CIRCLE
8
0
10
0.652595
20
-1.107782
40
0.010000
0
INSERT
8
0
2
EPAD
10
-0.948094
20
-1.070816
41
0.019685
42
0.019685
0
CIRCLE
8
0
10
-0.948094
20
-1.070816
40
0.010000
0
INSERT
8
0
2
EPAD
10
-0.606614
20
-1.070816
41
0.019685
42
0.019685
0
CIRCLE
8
0
10
-0.606614
20
-1.070816
40
0.010000
0
INSERT
8
0
2
EPAD
10
-0.350504
20
-1.070816
41
0.019685
42
0.019685
0
CIRCLE
8
0
10
-0.350504
20
-1.070816
40
0.010000
0
INSERT
8
0
2
EPAD
10
-0.948094
20
-0.996884
41
0.019685
42
0.019685
0
CIRCLE
8
0
10
-0.948094
20
-0.996884
40
0.010000
0
INSERT
8
0
2
EPAD
10
-0.948094
20
-0.922952
41
0.019685
42
0.019685
0
CIRCLE
8
0
10
-0.948094
20
-0.922952
40
0.010000
0
INSERT
8
0
2
EPAD
10
-0.948094
20
-0.849019
41
0.019685
42
0.019685
0
CIRCLE
8
0
10
-0.948094
20
-0.849019
40
0.010000
0
INSERT
8
0
2
EPAD
10
-0.948094
20
-0.479358
41
0.019685
42
0.019685
0
CIRCLE
8
0
10
-0.948094
20
-0.479358
40
0.010000
0
INSERT
8
0
2
EPAD
10
-0.948094
20
-0.405426
41
0.019685
42
0.019685
0
CIRCLE
8
0
10
-0.948094
20
-0.405426
40
0.010000
0
INSERT
8
0
2
EPAD
10
0.652595
20
-0.368459
41
0.019685
42
0.019685
0
CIRCLE
8
0
10
0.652595
20
-0.368459
40
0.010000
0
INSERT
8
0
2
EPAD
10
0.652595
20
-0.072730
41
0.019685
42
0.019685
0
CIRCLE
8
0
10
0.652595
20
-0.072730
40
0.010000
0
INSERT
8
0
2
EPAD
10
0.652595
20
0.001202
41
0.019685
42
0.019685
0
CIRCLE
8
0
10
0.652595
20
0.001202
40
0.010000
0
INSERT
8
0
2
EPAD
10
0.481854
20
0.149067
41
0.019685
42
0.019685
0
CIRCLE
8
0
10
0.481854
20
0.149067
40
0.010000
0
INSERT
8
0
2
EPAD
10
0.524539
20
0.149067
41
0.019685
42
0.019685
0
CIRCLE
8
0
10
0.524539
20
0.149067
40
0.010000
0
INSERT
8
0
2
EPAD
10
0.567224
20
0.149067
41
0.019685
42
0.019685
0
CIRCLE
8
0
10
0.567224
20
0.149067
40
0.010000
0
INSERT
8
0
2
EPAD
10
0.609909
20
0.149067
41
0.019685
42
0.019685
0
CIRCLE
8
0
10
0.609909
20
0.149067
40
0.010000
0
INSERT
8
0
2
EPAD
10
0.652595
20
0.149067
41
0.019685
42
0.019685
0
CIRCLE
8
0
10
0.652595
20
0.149067
40
0.010000
0
INSERT
8
0
2
EPAD
10
0.503197
20
0.186033
41
0.019685
42
0.019685
0
CIRCLE
8
0
10
0.503197
20
0.186033
40
0.010000
0
INSERT
8
0
2
EPAD
10
0.545882
20
0.186033
41
0.019685
42
0.019685
0
CIRCLE
8
0
10
0.545882
20
0.186033
40
0.010000
0
INSERT
8
0
2
EPAD
10
0.588567
20
0.186033
41
0.019685
42
0.019685
0
CIRCLE
8
0
10
0.588567
20
0.186033
40
0.010000
0
INSERT
8
0
2
EPAD
10
0.631252
20
0.186033
41
0.019685
42
0.019685
0
CIRCLE
8
0
10
0.631252
20
0.186033
40
0.010000
0
INSERT
8
0
2
EPAD
10
0.481854
20
0.222999
41
0.019685
42
0.019685
0
CIRCLE
8
0
10
0.481854
20
0.222999
40
0.010000
0
INSERT
8
0
2
EPAD
10
0.524539
20
0.222999
41
0.019685
42
0.019685
0
CIRCLE
8
0
10
0.524539
20
0.222999
40
0.010000
0
INSERT
8
0
2
EPAD
10
0.567224
20
0.222999
41
0.019685
42
0.019685
0
CIRCLE
8
0
10
0.567224
20
0.222999
40
0.010000
0
INSERT
8
0
2
EPAD
10
0.609909
20
0.222999
41
0.019685
42
0.019685
0
CIRCLE
8
0
10
0.609909
20
0.222999
40
0.010000
0
INSERT
8
0
2
EPAD
10
0.652595
20
0.222999
41
0.019685
42
0.019685
0
CIRCLE
8
0
10
0.652595
20
0.222999
40
0.010000
0
INSERT
8
0
2
EPAD
10
0.503197
20
0.259965
41
0.019685
42
0.019685
0
CIRCLE
8
0
10
0.503197
20
0.259965
40
0.010000
0
INSERT
8
0
2
EPAD
10
0.545882
20
0.259965
41
0.019685
42
0.019685
0
CIRCLE
8
0
10
0.545882
20
0.259965
40
0.010000
0
INSERT
8
0
2
EPAD
10
0.588567
20
0.259965
41
0.019685
42
0.019685
0
CIRCLE
8
0
10
0.588567
20
0.259965
40
0.010000
0
INSERT
8
0
2
EPAD
10
0.631252
20
0.259965
41
0.019685
42
0.019685
0
CIRCLE
8
0
10
0.631252
20
0.259965
40
0.010000
0
INSERT
8
0
2
EPAD
10
0.567224
20
0.296931
41
0.019685
42
0.019685
0
CIRCLE
8
0
10
0.567224
20
0.296931
40
0.010000
0
INSERT
8
0
2
EPAD
10
0.652595
20
0.296931
41
0.019685
42
0.019685
0
CIRCLE
8
0
10
0.652595
20
0.296931
40
0.010000
0
INSERT
8
0
2
EPAD
10
0.567224
20
0.370863
41
0.019685
42
0.019685
0
CIRCLE
8
0
10
0.567224
20
0.370863
40
0.010000
0
INSERT
8
0
2
EPAD
10
0.503197
20
0.407830
41
0.019685
42
0.019685
0
CIRCLE
8
0
10
0.503197
20
0.407830
40
0.010000
0
INSERT
8
0
2
EPAD
10
0.545882
20
0.407830
41
0.019685
42
0.019685
0
CIRCLE
8
0
10
0.545882
20
0.407830
40
0.010000
0
INSERT
8
0
2
EPAD
10
0.588567
20
0.407830
41
0.019685
42
0.019685
0
CIRCLE
8
0
10
0.588567
20
0.407830
40
0.010000
0
INSERT
8
0
2
EPAD
10
0.631252
20
0.407830
41
0.019685
42
0.019685
0
CIRCLE
8
0
10
0.631252
20
0.407830
40
0.010000
0
INSERT
8
0
2
EPAD
10
0.481854
20
0.444796
41
0.019685
42
0.019685
0
CIRCLE
8
0
10
0.481854
20
0.444796
40
0.010000
0
INSERT
8
0
2
EPAD
10
0.524539
20
0.444796
41
0.019685
42
0.019685
0
CIRCLE
8
0
10
0.524539
20
0.444796
40
0.010000
0
INSERT
8
0
2
EPAD
10
0.567224
20
0.444796
41
0.019685
42
0.019685
0
CIRCLE
8
0
10
0.567224
20
0.444796
40
0.010000
0
INSERT
8
0
2
EPAD
10
0.609909
20
0.444796
41
0.019685
42
0.019685
0
CIRCLE
8
0
10
0.609909
20
0.444796
40
0.010000
0
INSERT
8
0
2
EPAD
10
0.652595
20
0.444796
41
0.019685
42
0.019685
0
CIRCLE
8
0
10
0.652595
20
0.444796
40
0.010000
0
INSERT
8
0
2
EPAD
10
-0.009024
20
1.073220
41
0.019685
42
0.019685
0
CIRCLE
8
0
10
-0.009024
20
1.073220
40
0.010000
0
INSERT
8
0
2
EPAD
10
-0.009024
20
1.147152
41
0.019685
42
0.019685
0
CIRCLE
8
0
10
-0.009024
20
1.147152
40
0.010000
0
INSERT
8
0
2
EPAD
10
-0.009024
20
1.221085
41
0.019685
42
0.019685
0
CIRCLE
8
0
10
-0.009024
20
1.221085
40
0.010000
0
INSERT
8
0
2
EPAD
10
-0.094394
20
1.368949
41
0.019685
42
0.019685
0
CIRCLE
8
0
10
-0.094394
20
1.368949
40
0.010000
0
INSERT
8
0
2
EPAD
10
-0.051709
20
1.368949
41
0.019685
42
0.019685
0
CIRCLE
8
0
10
-0.051709
20
1.368949
40
0.010000
0
INSERT
8
0
2
EPAD
10
-0.009024
20
1.368949
41
0.019685
42
0.019685
0
CIRCLE
8
0
10
-0.009024
20
1.368949
40
0.010000
0
INSERT
8
0
2
EPAD
10
0.033661
20
1.368949
41
0.019685
42
0.019685
0
CIRCLE
8
0
10
0.033661
20
1.368949
40
0.010000
0
INSERT
8
0
2
EPAD
10
0.076346
20
1.368949
41
0.019685
42
0.019685
0
CIRCLE
8
0
10
0.076346
20
1.368949
40
0.010000
0
INSERT
8
0
2
EPAD
10
0.119031
20
1.368949
41
0.019685
42
0.019685
0
CIRCLE
8
0
10
0.119031
20
1.368949
40
0.010000
0
INSERT
8
0
2
EPAD
10
0.161717
20
1.368949
41
0.019685
42
0.019685
0
CIRCLE
8
0
10
0.161717
20
1.368949
40
0.010000
0
INSERT
8
0
2
EPAD
10
-0.073051
20
1.405915
41
0.019685
42
0.019685
0
CIRCLE
8
0
10
-0.073051
20
1.405915
40
0.010000
0
INSERT
8
0
2
EPAD
10
-0.030366
20
1.405915
41
0.019685
42
0.019685
0
CIRCLE
8
0
10
-0.030366
20
1.405915
40
0.010000
0
INSERT
8
0
2
EPAD
10
0.012319
20
1.405915
41
0.019685
42
0.019685
0
CIRCLE
8
0
10
0.012319
20
1.405915
40
0.010000
0
INSERT
8
0
2
EPAD
10
0.055004
20
1.405915
41
0.019685
42
0.019685
0
CIRCLE
8
0
10
0.055004
20
1.405915
40
0.010000
0
INSERT
8
0
2
EPAD
10
0.097689
20
1.405915
41
0.019685
42
0.019685
0
CIRCLE
8
0
10
0.097689
20
1.405915
40
0.010000
0
INSERT
8
0
2
EPAD
10
0.140374
20
1.405915
41
0.019685
42
0.019685
0
CIRCLE
8
0
10
0.140374
20
1.405915
40
0.010000
0
INSERT
8
0
2
EPAD
10
0.481854
20
0.592660
41
0.019685
42
0.019685
0
CIRCLE
8
0
10
0.481854
20
0.592660
40
0.010000
0
INSERT
8
0
2
EPAD
10
0.524539
20
0.592660
41
0.019685
42
0.019685
0
CIRCLE
8
0
10
0.524539
20
0.592660
40
0.010000
0
INSERT
8
0
2
EPAD
10
0.567224
20
0.592660
41
0.019685
42
0.019685
0
CIRCLE
8
0
10
0.567224
20
0.592660
40
0.010000
0
INSERT
8
0
2
EPAD
10
0.609909
20
0.592660
41
0.019685
42
0.019685
0
CIRCLE
8
0
10
0.609909
20
0.592660
40
0.010000
0
INSERT
8
0
2
EPAD
10
0.652595
20
0.592660
41
0.019685
42
0.019685
0
CIRCLE
8
0
10
0.652595
20
0.592660
40
0.010000
0
INSERT
8
0
2
EPAD
10
0.503197
20
0.629626
41
0.019685
42
0.019685
0
CIRCLE
8
0
10
0.503197
20
0.629626
40
0.010000
0
INSERT
8
0
2
EPAD
10
0.545882
20
0.629626
41
0.019685
42
0.019685
0
CIRCLE
8
0
10
0.545882
20
0.629626
40
0.010000
0
INSERT
8
0
2
EPAD
10
0.588567
20
0.629626
41
0.019685
42
0.019685
0
CIRCLE
8
0
10
0.588567
20
0.629626
40
0.010000
0
INSERT
8
0
2
EPAD
10
0.631252
20
0.629626
41
0.019685
42
0.019685
0
CIRCLE
8
0
10
0.631252
20
0.629626
40
0.010000
0
INSERT
8
0
2
EPAD
10
0.481854
20
0.666593
41
0.019685
42
0.019685
0
CIRCLE
8
0
10
0.481854
20
0.666593
40
0.010000
0
INSERT
8
0
2
EPAD
10
0.524539
20
0.666593
41
0.019685
42
0.019685
0
CIRCLE
8
0
10
0.524539
20
0.666593
40
0.010000
0
INSERT
8
0
2
EPAD
10
0.567224
20
0.666593
41
0.019685
42
0.019685
0
CIRCLE
8
0
10
0.567224
20
0.666593
40
0.010000
0
INSERT
8
0
2
EPAD
10
0.609909
20
0.666593
41
0.019685
42
0.019685
0
CIRCLE
8
0
10
0.609909
20
0.666593
40
0.010000
0
INSERT
8
0
2
EPAD
10
0.652595
20
0.666593
41
0.019685
42
0.019685
0
CIRCLE
8
0
10
0.652595
20
0.666593
40
0.010000
0
INSERT
8
0
2
EPAD
10
0.503197
20
0.703559
41
0.019685
42
0.019685
0
CIRCLE
8
0
10
0.503197
20
0.703559
40
0.010000
0
INSERT
8
0
2
EPAD
10
0.545882
20
0.703559
41
0.019685
42
0.019685
0
CIRCLE
8
0
10
0.545882
20
0.703559
40
0.010000
0
INSERT
8
0
2
EPAD
10
0.588567
20
0.703559
41
0.019685
42
0.019685
0
CIRCLE
8
0
10
0.588567
20
0.703559
40
0.010000
0
INSERT
8
0
2
EPAD
10
0.631252
20
0.703559
41
0.019685
42
0.019685
0
CIRCLE
8
0
10
0.631252
20
0.703559
40
0.010000
0
INSERT
8
0
2
EPAD
10
0.481854
20
0.740525
41
0.019685
42
0.019685
0
CIRCLE
8
0
10
0.481854
20
0.740525
40
0.010000
0
INSERT
8
0
2
EPAD
10
0.524539
20
0.740525
41
0.019685
42
0.019685
0
CIRCLE
8
0
10
0.524539
20
0.740525
40
0.010000
0
INSERT
8
0
2
EPAD
10
0.567224
20
0.740525
41
0.019685
42
0.019685
0
CIRCLE
8
0
10
0.567224
20
0.740525
40
0.010000
0
INSERT
8
0
2
EPAD
10
0.609909
20
0.740525
41
0.019685
42
0.019685
0
CIRCLE
8
0
10
0.609909
20
0.740525
40
0.010000
0
INSERT
8
0
2
EPAD
10
0.652595
20
0.740525
41
0.019685
42
0.019685
0
CIRCLE
8
0
10
0.652595
20
0.740525
40
0.010000
0
INSERT
8
0
2
EPAD
10
0.312205
20
0.927953
41
0.133858
42
0.133858
0
CIRCLE
8
0
10
0.312205
20
0.927953
40
0.010000
0
INSERT
8
0
2
EPAD
10
0.012205
20
0.927953
41
0.133858
42
0.133858
0
CIRCLE
8
0
10
0.012205
20
0.927953
40
0.010000
0
INSERT
8
0
2
EPAD
10
-0.287795
20
0.927953
41
0.133858
42
0.133858
0
CIRCLE
8
0
10
-0.287795
20
0.927953
40
0.010000
0
INSERT
8
0
2
EPAD
10
-0.587795
20
0.927953
41
0.133858
42
0.133858
0
CIRCLE
8
0
10
-0.587795
20
0.927953
40
0.010000
0
INSERT
8
0
2
EPAD
10
-0.885827
20
1.358268
41
0.122835
42
0.122835
0
CIRCLE
8
0
10
-0.885827
20
1.358268
40
0.010000
0
INSERT
8
0
2
EPAD
10
0.610236
20
1.358268
41
0.122835
42
0.122835
0
CIRCLE
8
0
10
0.610236
20
1.358268
40
0.010000
0
INSERT
8
0
2
EPAD
10
-0.885827
20
-1.318898
41
0.122835
42
0.122835
0
CIRCLE
8
0
10
-0.885827
20
-1.318898
40
0.010000
0
INSERT
8
0
2
EPAD
10
0.610236
20
-1.318898
41
0.122835
42
0.122835
0
CIRCLE
8
0
10
0.610236
20
-1.318898
40
0.010000
0
INSERT
8
0
2
EPAD
10
-0.278740
20
-1.240157
41
0.080000
42
0.080000
0
CIRCLE
8
0
10
-0.278740
20
-1.240157
40
0.025000
0
INSERT
8
0
2
EPAD
10
-0.178740
20
-1.240157
41
0.080000
42
0.080000
0
CIRCLE
8
0
10
-0.178740
20
-1.240157
40
0.025000
0
INSERT
8
0
2
EPAD
10
-0.078740
20
-1.240157
41
0.080000
42
0.080000
0
CIRCLE
8
0
10
-0.078740
20
-1.240157
40
0.025000
0
POLYLINE
8
0
66
1
40
0.008000
41
0.008000
0
VERTEX
8
0
10
-0.885827
20
1.476378
0
VERTEX
8
0
10
-0.909976
20
1.474028
0
VERTEX
8
0
10
-0.932309
20
1.467266
0
VERTEX
8
0
10
-0.952393
20
1.456525
0
VERTEX
8
0
10
-0.969796
20
1.442237
0
VERTEX
8
0
10
-0.984084
20
1.424835
0
VERTEX
8
0
10
-0.994825
20
1.404750
0
VERTEX
8
0
10
-1.001587
20
1.382417
0
VERTEX
8
0
10
-1.003937
20
1.358268
0
SEQEND
8
0
0
POLYLINE
8
0
66
1
40
0.008000
41
0.008000
0
VERTEX
8
0
10
0.610236
20
1.476378
0
VERTEX
8
0
10
0.634386
20
1.474028
0
VERTEX
8
0
10
0.656719
20
1.467266
0
VERTEX
8
0
10
0.676803
20
1.456525
0
VERTEX
8
0
10
0.694205
20
1.442237
0
VERTEX
8
0
10
0.708493
20
1.424835
0
VERTEX
8
0
10
0.719234
20
1.404750
0
VERTEX
8
0
10
0.725996
20
1.382417
0
VERTEX
8
0
10
0.728346
20
1.358268
0
SEQEND
8
0
0
POLYLINE
8
0
66
1
40
0.008000
41
0.008000
0
VERTEX
8
0
10
-1.003937
20
-1.318898
0
VERTEX
8
0
10
-1.001587
20
-1.343047
0
VERTEX
8
0
10
-0.994825
20
-1.365380
0
VERTEX
8
0
10
-0.984084
20
-1.385465
0
VERTEX
8
0
10
-0.969796
20
-1.402866
0
VERTEX
8
0
10
-0.952393
20
-1.417155
0
VERTEX
8
0
10
-0.932309
20
-1.427896
0
VERTEX
8
0
10
-0.909976
20
-1.434658
0
VERTEX
8
0
10
-0.885827
20
-1.437008
0
SEQEND
8
0
0
POLYLINE
8
0
66
1
40
0.008000
41
0.008000
0
VERTEX
8
0
10
0.728346
20
-1.318898
0
VERTEX
8
0
10
0.725996
20
-1.343047
0
VERTEX
8
0
10
0.719234
20
-1.365380
0
VERTEX
8
0
10
0.708493
20
-1.385465
0
VERTEX
8
0
10
0.694205
20
-1.402866
0
VERTEX
8
0
10
0.676803
20
-1.417155
0
VERTEX
8
0
10
0.656719
20
-1.427896
0
VERTEX
8
0
10
0.634386
20
-1.434658
0
VERTEX
8
0
10
0.610236
20
-1.437008
0
VERTEX
8
0
10
-0.885827
20
-1.437008
0
SEQEND
8
0
0
POLYLINE
8
0
66
1
40
0.008000
41
0.008000
0
VERTEX
8
0
10
-1.003937
20
-1.318898
0
VERTEX
8
0
10
-1.003937
20
1.358268
0
SEQEND
8
0
0
POLYLINE
8
0
66
1
40
0.008000
41
0.008000
0
VERTEX
8
0
10
-0.885827
20
1.476378
0
VERTEX
8
0
10
0.610236
20
1.476378
0
SEQEND
8
0
0
POLYLINE
8
0
66
1
40
0.008000
41
0.008000
0
VERTEX
8
0
10
0.728346
20
1.358268
0
VERTEX
8
0
10
0.728346
20
-1.318898
0
SEQEND
8
0
0
ENDSEC
0
EOF

