  0
SECTION
  2
HEADER
  9
$ACADVER
  1
AC1009
  9
$INSUNITS
 70
     1
  0
ENDSEC
  0
SECTION
  2
TABLES
  0
TABLE
  2
LAYER
 70
     8
  0
LAYER
  2
0
 62
     7
 70
0
  6
CONTINUOUS
  0
LAYER
  2
1
 62
     1
 70
0
  6
CONTINUOUS
  0
LAYER
  2
2
 62
     2
 70
0
  6
CONTINUOUS
  0
LAYER
  2
3
 62
     3
 70
0
  6
CONTINUOUS
  0
LAYER
  2
4
 62
     4
 70
0
  6
CONTINUOUS
  0
LAYER
  2
5
 62
     5
 70
0
  6
CONTINUOUS
  0
LAYER
  2
6
 62
     6
 70
0
  6
CONTINUOUS
  0
LAYER
  2
7
 62
     7
 70
0
  6
CONTINUOUS
  0
ENDTAB
  0
TABLE
  2
STYLE
 70
     1
  0
STYLE
 70
     0
  2
STANDARD
  3
TXT
 40
0.00
 41
1.00
 42
1.00
 50
0.00
 71
     0
  0
ENDTAB
  0
ENDSEC
  0
SECTION
  2
BLOCKS
  0
BLOCK
  8
0
  2
EPAD
 70
0
 10
0.0
 20
0.0
  0
POLYLINE
  8
0
 66
1
 70
1
 40
0.5
 41
0.5
  0
VERTEX
  8
0
 10
-0.25
 20
0.0
 42
1.0
  0
VERTEX
  8
0
 10
0.25
 20
0.0
 42
1.0
  0
SEQEND
  8
0
  0
ENDBLK
  8
0
  0
BLOCK
  8
0
  2
RPAD
 70
0
 10
0.0
 20
0.0
  0
TRACE
  8
0
 10
-0.5
 20
-0.5
 11
-0.5
 21
0.5
 12
0.5
 22
-0.5
 13
0.5
 23
0.5
  0
ENDBLK
  8
0
  0
ENDSEC
0
SECTION
2
ENTITIES
0
INSERT
8
0
2
EPAD
10
0.181868
20
0.148453
41
0.024000
42
0.024000
0
CIRCLE
8
0
10
0.181868
20
0.148453
40
0.010000
0
INSERT
8
0
2
EPAD
10
-0.035608
20
0.132938
41
0.024000
42
0.024000
0
CIRCLE
8
0
10
-0.035608
20
0.132938
40
0.010000
0
INSERT
8
0
2
EPAD
10
-0.085674
20
-0.012772
41
0.024000
42
0.024000
0
CIRCLE
8
0
10
-0.085674
20
-0.012772
40
0.010000
0
INSERT
8
0
2
EPAD
10
0.041231
20
-0.011533
41
0.024000
42
0.024000
0
CIRCLE
8
0
10
0.041231
20
-0.011533
40
0.010000
0
INSERT
8
0
2
EPAD
10
0.132692
20
-0.054011
41
0.024000
42
0.024000
0
CIRCLE
8
0
10
0.132692
20
-0.054011
40
0.010000
0
INSERT
8
0
2
EPAD
10
0.168557
20
-0.150607
41
0.024000
42
0.024000
0
CIRCLE
8
0
10
0.168557
20
-0.150607
40
0.010000
0
INSERT
8
0
2
EPAD
10
0.418745
20
0.091134
41
0.024000
42
0.024000
0
CIRCLE
8
0
10
0.418745
20
0.091134
40
0.010000
0
INSERT
8
0
2
EPAD
10
0.465293
20
-0.012776
41
0.024000
42
0.024000
0
CIRCLE
8
0
10
0.465293
20
-0.012776
40
0.010000
0
INSERT
8
0
2
EPAD
10
-0.046513
20
-0.060102
41
0.024000
42
0.024000
0
CIRCLE
8
0
10
-0.046513
20
-0.060102
40
0.010000
0
INSERT
8
0
2
EPAD
10
-0.425000
20
0.155000
41
0.024000
42
0.024000
0
CIRCLE
8
0
10
-0.425000
20
0.155000
40
0.010000
0
INSERT
8
0
2
EPAD
10
0.351220
20
-0.015000
41
0.024000
42
0.024000
0
CIRCLE
8
0
10
0.351220
20
-0.015000
40
0.010000
0
INSERT
8
0
2
EPAD
10
0.163001
20
-0.020693
41
0.024000
42
0.024000
0
CIRCLE
8
0
10
0.163001
20
-0.020693
40
0.010000
0
INSERT
8
0
2
EPAD
10
-0.203780
20
0.175000
41
0.024000
42
0.024000
0
CIRCLE
8
0
10
-0.203780
20
0.175000
40
0.010000
0
INSERT
8
0
2
EPAD
10
-0.124544
20
0.042346
41
0.024000
42
0.024000
0
CIRCLE
8
0
10
-0.124544
20
0.042346
40
0.010000
0
INSERT
8
0
2
EPAD
10
0.282220
20
-0.045000
41
0.024000
42
0.024000
0
CIRCLE
8
0
10
0.282220
20
-0.045000
40
0.010000
0
INSERT
8
0
2
EPAD
10
0.466815
20
-0.051453
41
0.024000
42
0.024000
0
CIRCLE
8
0
10
0.466815
20
-0.051453
40
0.010000
0
INSERT
8
0
2
EPAD
10
-0.470000
20
-0.055000
41
0.024000
42
0.024000
0
CIRCLE
8
0
10
-0.470000
20
-0.055000
40
0.010000
0
INSERT
8
0
2
EPAD
10
-0.470000
20
-0.015000
41
0.024000
42
0.024000
0
CIRCLE
8
0
10
-0.470000
20
-0.015000
40
0.010000
0
INSERT
8
0
2
EPAD
10
-0.506575
20
0.281575
41
0.124016
42
0.124016
0
INSERT
8
0
2
EPAD
10
0.517047
20
0.281575
41
0.124016
42
0.124016
0
INSERT
8
0
2
EPAD
10
-0.290739
20
-0.268300
41
0.080000
42
0.080000
0
CIRCLE
8
0
10
-0.290739
20
-0.268300
40
0.025000
0
INSERT
8
0
2
EPAD
10
-0.190739
20
-0.268300
41
0.080000
42
0.080000
0
CIRCLE
8
0
10
-0.190739
20
-0.268300
40
0.025000
0
INSERT
8
0
2
EPAD
10
-0.090739
20
-0.268300
41
0.080000
42
0.080000
0
CIRCLE
8
0
10
-0.090739
20
-0.268300
40
0.025000
0
INSERT
8
0
2
EPAD
10
0.009261
20
-0.268300
41
0.080000
42
0.080000
0
CIRCLE
8
0
10
0.009261
20
-0.268300
40
0.025000
0
INSERT
8
0
2
EPAD
10
0.109261
20
-0.268300
41
0.080000
42
0.080000
0
CIRCLE
8
0
10
0.109261
20
-0.268300
40
0.025000
0
INSERT
8
0
2
EPAD
10
0.209261
20
-0.268300
41
0.080000
42
0.080000
0
CIRCLE
8
0
10
0.209261
20
-0.268300
40
0.025000
0
INSERT
8
0
2
EPAD
10
0.309261
20
-0.268300
41
0.080000
42
0.080000
0
CIRCLE
8
0
10
0.309261
20
-0.268300
40
0.025000
0
INSERT
8
0
2
EPAD
10
-0.506575
20
-0.269606
41
0.124016
42
0.124016
0
INSERT
8
0
2
EPAD
10
0.517047
20
-0.269606
41
0.124016
42
0.124016
0
POLYLINE
8
0
66
1
40
0.008000
41
0.008000
0
VERTEX
8
0
10
-0.526260
20
0.380000
0
VERTEX
8
0
10
-0.542360
20
0.378433
0
VERTEX
8
0
10
-0.557248
20
0.373925
0
VERTEX
8
0
10
-0.570638
20
0.366765
0
VERTEX
8
0
10
-0.582239
20
0.357239
0
VERTEX
8
0
10
-0.591765
20
0.345638
0
VERTEX
8
0
10
-0.598925
20
0.332248
0
VERTEX
8
0
10
-0.603433
20
0.317360
0
VERTEX
8
0
10
-0.605000
20
0.301260
0
SEQEND
8
0
0
POLYLINE
8
0
66
1
40
0.008000
41
0.008000
0
VERTEX
8
0
10
0.536732
20
0.380000
0
VERTEX
8
0
10
0.552832
20
0.378433
0
VERTEX
8
0
10
0.567721
20
0.373925
0
VERTEX
8
0
10
0.581110
20
0.366765
0
VERTEX
8
0
10
0.592712
20
0.357239
0
VERTEX
8
0
10
0.602237
20
0.345638
0
VERTEX
8
0
10
0.609398
20
0.332248
0
VERTEX
8
0
10
0.613905
20
0.317360
0
VERTEX
8
0
10
0.615472
20
0.301260
0
SEQEND
8
0
0
POLYLINE
8
0
66
1
40
0.008000
41
0.008000
0
VERTEX
8
0
10
0.615472
20
-0.289291
0
VERTEX
8
0
10
0.613905
20
-0.305391
0
VERTEX
8
0
10
0.609398
20
-0.320280
0
VERTEX
8
0
10
0.602237
20
-0.333669
0
VERTEX
8
0
10
0.592712
20
-0.345271
0
VERTEX
8
0
10
0.581110
20
-0.354796
0
VERTEX
8
0
10
0.567721
20
-0.361957
0
VERTEX
8
0
10
0.552832
20
-0.366465
0
VERTEX
8
0
10
0.536732
20
-0.368032
0
SEQEND
8
0
0
POLYLINE
8
0
66
1
40
0.008000
41
0.008000
0
VERTEX
8
0
10
-0.605000
20
-0.289291
0
VERTEX
8
0
10
-0.603433
20
-0.305391
0
VERTEX
8
0
10
-0.598925
20
-0.320280
0
VERTEX
8
0
10
-0.591765
20
-0.333669
0
VERTEX
8
0
10
-0.582239
20
-0.345271
0
VERTEX
8
0
10
-0.570638
20
-0.354796
0
VERTEX
8
0
10
-0.557248
20
-0.361957
0
VERTEX
8
0
10
-0.542360
20
-0.366465
0
VERTEX
8
0
10
-0.526260
20
-0.368032
0
VERTEX
8
0
10
0.536732
20
-0.368032
0
SEQEND
8
0
0
POLYLINE
8
0
66
1
40
0.008000
41
0.008000
0
VERTEX
8
0
10
0.615472
20
-0.289291
0
VERTEX
8
0
10
0.615472
20
0.301260
0
SEQEND
8
0
0
POLYLINE
8
0
66
1
40
0.008000
41
0.008000
0
VERTEX
8
0
10
0.536732
20
0.380000
0
VERTEX
8
0
10
-0.526260
20
0.380000
0
SEQEND
8
0
0
POLYLINE
8
0
66
1
40
0.008000
41
0.008000
0
VERTEX
8
0
10
-0.605000
20
0.301260
0
VERTEX
8
0
10
-0.605000
20
-0.289291
0
SEQEND
8
0
0
ENDSEC
0
EOF

