  0
SECTION
  2
HEADER
  9
$ACADVER
  1
AC1009
  9
$INSUNITS
 70
     1
  0
ENDSEC
  0
SECTION
  2
TABLES
  0
TABLE
  2
LAYER
 70
     8
  0
LAYER
  2
0
 62
     7
 70
0
  6
CONTINUOUS
  0
LAYER
  2
1
 62
     1
 70
0
  6
CONTINUOUS
  0
LAYER
  2
2
 62
     2
 70
0
  6
CONTINUOUS
  0
LAYER
  2
3
 62
     3
 70
0
  6
CONTINUOUS
  0
LAYER
  2
4
 62
     4
 70
0
  6
CONTINUOUS
  0
LAYER
  2
5
 62
     5
 70
0
  6
CONTINUOUS
  0
LAYER
  2
6
 62
     6
 70
0
  6
CONTINUOUS
  0
LAYER
  2
7
 62
     7
 70
0
  6
CONTINUOUS
  0
ENDTAB
  0
TABLE
  2
STYLE
 70
     1
  0
STYLE
 70
     0
  2
STANDARD
  3
TXT
 40
0.00
 41
1.00
 42
1.00
 50
0.00
 71
     0
  0
ENDTAB
  0
ENDSEC
  0
SECTION
  2
BLOCKS
  0
BLOCK
  8
0
  2
EPAD
 70
0
 10
0.0
 20
0.0
  0
POLYLINE
  8
0
 66
1
 70
1
 40
0.5
 41
0.5
  0
VERTEX
  8
0
 10
-0.25
 20
0.0
 42
1.0
  0
VERTEX
  8
0
 10
0.25
 20
0.0
 42
1.0
  0
SEQEND
  8
0
  0
ENDBLK
  8
0
  0
BLOCK
  8
0
  2
RPAD
 70
0
 10
0.0
 20
0.0
  0
TRACE
  8
0
 10
-0.5
 20
-0.5
 11
-0.5
 21
0.5
 12
0.5
 22
-0.5
 13
0.5
 23
0.5
  0
ENDBLK
  8
0
  0
ENDSEC
0
SECTION
2
ENTITIES
0
INSERT
8
0
2
EPAD
10
0.180000
20
0.080000
41
0.019685
42
0.019685
0
CIRCLE
8
0
10
0.180000
20
0.080000
40
0.010000
0
INSERT
8
0
2
EPAD
10
0.250000
20
0.090000
41
0.019685
42
0.019685
0
CIRCLE
8
0
10
0.250000
20
0.090000
40
0.010000
0
INSERT
8
0
2
EPAD
10
0.179499
20
0.009688
41
0.019685
42
0.019685
0
CIRCLE
8
0
10
0.179499
20
0.009688
40
0.010000
0
INSERT
8
0
2
EPAD
10
0.059331
20
0.058114
41
0.019685
42
0.019685
0
CIRCLE
8
0
10
0.059331
20
0.058114
40
0.010000
0
INSERT
8
0
2
EPAD
10
0.378563
20
0.114559
41
0.019685
42
0.019685
0
CIRCLE
8
0
10
0.378563
20
0.114559
40
0.010000
0
INSERT
8
0
2
EPAD
10
0.310543
20
-0.063295
41
0.019685
42
0.019685
0
CIRCLE
8
0
10
0.310543
20
-0.063295
40
0.010000
0
INSERT
8
0
2
EPAD
10
0.110000
20
0.040000
41
0.019685
42
0.019685
0
CIRCLE
8
0
10
0.110000
20
0.040000
40
0.010000
0
INSERT
8
0
2
EPAD
10
-0.216469
20
-0.043514
41
0.019685
42
0.019685
0
CIRCLE
8
0
10
-0.216469
20
-0.043514
40
0.010000
0
INSERT
8
0
2
EPAD
10
-0.328354
20
0.111402
41
0.024000
42
0.024000
0
CIRCLE
8
0
10
-0.328354
20
0.111402
40
0.010000
0
INSERT
8
0
2
EPAD
10
-0.256000
20
0.083000
41
0.024000
42
0.024000
0
CIRCLE
8
0
10
-0.256000
20
0.083000
40
0.010000
0
INSERT
8
0
2
EPAD
10
-0.312848
20
-0.109638
41
0.024000
42
0.024000
0
CIRCLE
8
0
10
-0.312848
20
-0.109638
40
0.010000
0
INSERT
8
0
2
EPAD
10
-0.256880
20
-0.050232
41
0.024000
42
0.024000
0
CIRCLE
8
0
10
-0.256880
20
-0.050232
40
0.010000
0
INSERT
8
0
2
EPAD
10
-0.019348
20
-0.087654
41
0.024000
42
0.024000
0
CIRCLE
8
0
10
-0.019348
20
-0.087654
40
0.010000
0
INSERT
8
0
2
EPAD
10
0.333498
20
0.021525
41
0.019685
42
0.019685
0
CIRCLE
8
0
10
0.333498
20
0.021525
40
0.010000
0
INSERT
8
0
2
EPAD
10
0.336741
20
0.068982
41
0.024000
42
0.024000
0
CIRCLE
8
0
10
0.336741
20
0.068982
40
0.010000
0
INSERT
8
0
2
EPAD
10
0.100069
20
0.203000
41
0.024000
42
0.024000
0
CIRCLE
8
0
10
0.100069
20
0.203000
40
0.010000
0
INSERT
8
0
2
EPAD
10
-0.280000
20
0.020669
41
0.019685
42
0.019685
0
CIRCLE
8
0
10
-0.280000
20
0.020669
40
0.010000
0
INSERT
8
0
2
EPAD
10
-0.165460
20
0.126424
41
0.024000
42
0.024000
0
CIRCLE
8
0
10
-0.165460
20
0.126424
40
0.010000
0
INSERT
8
0
2
EPAD
10
0.115000
20
-0.044000
41
0.019685
42
0.019685
0
CIRCLE
8
0
10
0.115000
20
-0.044000
40
0.010000
0
INSERT
8
0
2
EPAD
10
0.031000
20
-0.090000
41
0.019685
42
0.019685
0
CIRCLE
8
0
10
0.031000
20
-0.090000
40
0.010000
0
INSERT
8
0
2
EPAD
10
0.222906
20
-0.159906
41
0.019685
42
0.019685
0
CIRCLE
8
0
10
0.222906
20
-0.159906
40
0.010000
0
INSERT
8
0
2
EPAD
10
-0.269094
20
-0.274606
41
0.080000
42
0.080000
0
CIRCLE
8
0
10
-0.269094
20
-0.274606
40
0.025000
0
INSERT
8
0
2
EPAD
10
-0.169094
20
-0.274606
41
0.080000
42
0.080000
0
CIRCLE
8
0
10
-0.169094
20
-0.274606
40
0.025000
0
INSERT
8
0
2
EPAD
10
-0.069094
20
-0.274606
41
0.080000
42
0.080000
0
CIRCLE
8
0
10
-0.069094
20
-0.274606
40
0.025000
0
INSERT
8
0
2
EPAD
10
0.030906
20
-0.274606
41
0.080000
42
0.080000
0
CIRCLE
8
0
10
0.030906
20
-0.274606
40
0.025000
0
INSERT
8
0
2
EPAD
10
0.130906
20
-0.274606
41
0.080000
42
0.080000
0
CIRCLE
8
0
10
0.130906
20
-0.274606
40
0.025000
0
INSERT
8
0
2
EPAD
10
0.230906
20
-0.274606
41
0.080000
42
0.080000
0
CIRCLE
8
0
10
0.230906
20
-0.274606
40
0.025000
0
INSERT
8
0
2
EPAD
10
0.330905
20
-0.274606
41
0.080000
42
0.080000
0
CIRCLE
8
0
10
0.330905
20
-0.274606
40
0.025000
0
INSERT
8
0
2
EPAD
10
-0.426575
20
0.276575
41
0.122441
42
0.122441
0
CIRCLE
8
0
10
-0.426575
20
0.276575
40
0.010000
0
INSERT
8
0
2
EPAD
10
0.478937
20
0.276575
41
0.122441
42
0.122441
0
CIRCLE
8
0
10
0.478937
20
0.276575
40
0.010000
0
INSERT
8
0
2
EPAD
10
-0.426575
20
-0.274606
41
0.122441
42
0.122441
0
CIRCLE
8
0
10
-0.426575
20
-0.274606
40
0.010000
0
INSERT
8
0
2
EPAD
10
0.478937
20
-0.274606
41
0.122441
42
0.122441
0
CIRCLE
8
0
10
0.478937
20
-0.274606
40
0.010000
0
POLYLINE
8
0
66
1
40
0.008000
41
0.008000
0
VERTEX
8
0
10
-0.525000
20
-0.294291
0
VERTEX
8
0
10
-0.523433
20
-0.310391
0
VERTEX
8
0
10
-0.518925
20
-0.325280
0
VERTEX
8
0
10
-0.511765
20
-0.338669
0
VERTEX
8
0
10
-0.502239
20
-0.350271
0
VERTEX
8
0
10
-0.490638
20
-0.359796
0
VERTEX
8
0
10
-0.477248
20
-0.366957
0
VERTEX
8
0
10
-0.462360
20
-0.371465
0
VERTEX
8
0
10
-0.446260
20
-0.373031
0
SEQEND
8
0
0
POLYLINE
8
0
66
1
40
0.008000
41
0.008000
0
VERTEX
8
0
10
0.577362
20
-0.294291
0
VERTEX
8
0
10
0.575795
20
-0.310391
0
VERTEX
8
0
10
0.571287
20
-0.325280
0
VERTEX
8
0
10
0.564127
20
-0.338669
0
VERTEX
8
0
10
0.554602
20
-0.350271
0
VERTEX
8
0
10
0.543000
20
-0.359796
0
VERTEX
8
0
10
0.529611
20
-0.366957
0
VERTEX
8
0
10
0.514722
20
-0.371465
0
VERTEX
8
0
10
0.498622
20
-0.373031
0
SEQEND
8
0
0
POLYLINE
8
0
66
1
40
0.008000
41
0.008000
0
VERTEX
8
0
10
0.577362
20
0.296260
0
VERTEX
8
0
10
0.575795
20
0.312360
0
VERTEX
8
0
10
0.571287
20
0.327248
0
VERTEX
8
0
10
0.564127
20
0.340638
0
VERTEX
8
0
10
0.554602
20
0.352239
0
VERTEX
8
0
10
0.543000
20
0.361765
0
VERTEX
8
0
10
0.529611
20
0.368925
0
VERTEX
8
0
10
0.514722
20
0.373433
0
VERTEX
8
0
10
0.498622
20
0.375000
0
SEQEND
8
0
0
POLYLINE
8
0
66
1
40
0.008000
41
0.008000
0
VERTEX
8
0
10
-0.446260
20
0.375000
0
VERTEX
8
0
10
-0.462360
20
0.373433
0
VERTEX
8
0
10
-0.477248
20
0.368925
0
VERTEX
8
0
10
-0.490638
20
0.361765
0
VERTEX
8
0
10
-0.502239
20
0.352239
0
VERTEX
8
0
10
-0.511765
20
0.340638
0
VERTEX
8
0
10
-0.518925
20
0.327248
0
VERTEX
8
0
10
-0.523433
20
0.312360
0
VERTEX
8
0
10
-0.525000
20
0.296260
0
SEQEND
8
0
0
POLYLINE
8
0
66
1
40
0.008000
41
0.008000
0
VERTEX
8
0
10
-0.525000
20
-0.294291
0
VERTEX
8
0
10
-0.525000
20
0.296260
0
SEQEND
8
0
0
POLYLINE
8
0
66
1
40
0.008000
41
0.008000
0
VERTEX
8
0
10
-0.446260
20
0.375000
0
VERTEX
8
0
10
0.498622
20
0.375000
0
SEQEND
8
0
0
POLYLINE
8
0
66
1
40
0.008000
41
0.008000
0
VERTEX
8
0
10
0.577362
20
0.296260
0
VERTEX
8
0
10
0.577362
20
-0.294291
0
SEQEND
8
0
0
POLYLINE
8
0
66
1
40
0.008000
41
0.008000
0
VERTEX
8
0
10
0.498622
20
-0.373031
0
VERTEX
8
0
10
-0.446260
20
-0.373031
0
SEQEND
8
0
0
ENDSEC
0
EOF

