  0
SECTION
  2
HEADER
  9
$ACADVER
  1
AC1009
  9
$INSUNITS
 70
     1
  0
ENDSEC
  0
SECTION
  2
TABLES
  0
TABLE
  2
LAYER
 70
     8
  0
LAYER
  2
0
 62
     7
 70
0
  6
CONTINUOUS
  0
LAYER
  2
1
 62
     1
 70
0
  6
CONTINUOUS
  0
LAYER
  2
2
 62
     2
 70
0
  6
CONTINUOUS
  0
LAYER
  2
3
 62
     3
 70
0
  6
CONTINUOUS
  0
LAYER
  2
4
 62
     4
 70
0
  6
CONTINUOUS
  0
LAYER
  2
5
 62
     5
 70
0
  6
CONTINUOUS
  0
LAYER
  2
6
 62
     6
 70
0
  6
CONTINUOUS
  0
LAYER
  2
7
 62
     7
 70
0
  6
CONTINUOUS
  0
ENDTAB
  0
TABLE
  2
STYLE
 70
     1
  0
STYLE
 70
     0
  2
STANDARD
  3
TXT
 40
0.00
 41
1.00
 42
1.00
 50
0.00
 71
     0
  0
ENDTAB
  0
ENDSEC
  0
SECTION
  2
BLOCKS
  0
BLOCK
  8
0
  2
EPAD
 70
0
 10
0.0
 20
0.0
  0
POLYLINE
  8
0
 66
1
 70
1
 40
0.5
 41
0.5
  0
VERTEX
  8
0
 10
-0.25
 20
0.0
 42
1.0
  0
VERTEX
  8
0
 10
0.25
 20
0.0
 42
1.0
  0
SEQEND
  8
0
  0
ENDBLK
  8
0
  0
BLOCK
  8
0
  2
RPAD
 70
0
 10
0.0
 20
0.0
  0
TRACE
  8
0
 10
-0.5
 20
-0.5
 11
-0.5
 21
0.5
 12
0.5
 22
-0.5
 13
0.5
 23
0.5
  0
ENDBLK
  8
0
  0
ENDSEC
0
SECTION
2
ENTITIES
0
INSERT
8
0
2
EPAD
10
-0.200389
20
-0.506522
41
0.019685
42
0.019685
0
CIRCLE
8
0
10
-0.200389
20
-0.506522
40
0.010000
0
INSERT
8
0
2
EPAD
10
-0.442500
20
0.187972
41
0.019685
42
0.019685
0
CIRCLE
8
0
10
-0.442500
20
0.187972
40
0.010000
0
INSERT
8
0
2
EPAD
10
-0.547500
20
0.241406
41
0.019685
42
0.019685
0
CIRCLE
8
0
10
-0.547500
20
0.241406
40
0.010000
0
INSERT
8
0
2
EPAD
10
-0.252158
20
-0.487522
41
0.019685
42
0.019685
0
CIRCLE
8
0
10
-0.252158
20
-0.487522
40
0.010000
0
INSERT
8
0
2
EPAD
10
-0.725902
20
0.122761
41
0.019685
42
0.019685
0
CIRCLE
8
0
10
-0.725902
20
0.122761
40
0.010000
0
INSERT
8
0
2
EPAD
10
0.884558
20
0.775506
41
0.019685
42
0.019685
0
CIRCLE
8
0
10
0.884558
20
0.775506
40
0.010000
0
INSERT
8
0
2
EPAD
10
0.670441
20
0.602949
41
0.019685
42
0.019685
0
CIRCLE
8
0
10
0.670441
20
0.602949
40
0.010000
0
INSERT
8
0
2
EPAD
10
0.897500
20
0.496406
41
0.019685
42
0.019685
0
CIRCLE
8
0
10
0.897500
20
0.496406
40
0.010000
0
INSERT
8
0
2
EPAD
10
-0.592500
20
0.131406
41
0.019685
42
0.019685
0
CIRCLE
8
0
10
-0.592500
20
0.131406
40
0.010000
0
INSERT
8
0
2
EPAD
10
-0.607500
20
0.111406
41
0.019685
42
0.019685
0
CIRCLE
8
0
10
-0.607500
20
0.111406
40
0.010000
0
INSERT
8
0
2
EPAD
10
-0.476816
20
0.129139
41
0.019685
42
0.019685
0
CIRCLE
8
0
10
-0.476816
20
0.129139
40
0.010000
0
INSERT
8
0
2
EPAD
10
0.842047
20
0.773456
41
0.019685
42
0.019685
0
CIRCLE
8
0
10
0.842047
20
0.773456
40
0.010000
0
INSERT
8
0
2
EPAD
10
0.931647
20
0.772959
41
0.019685
42
0.019685
0
CIRCLE
8
0
10
0.931647
20
0.772959
40
0.010000
0
INSERT
8
0
2
EPAD
10
0.827500
20
0.741405
41
0.019685
42
0.019685
0
CIRCLE
8
0
10
0.827500
20
0.741405
40
0.010000
0
INSERT
8
0
2
EPAD
10
0.827500
20
0.701406
41
0.019685
42
0.019685
0
CIRCLE
8
0
10
0.827500
20
0.701406
40
0.010000
0
INSERT
8
0
2
EPAD
10
0.826907
20
0.673431
41
0.019685
42
0.019685
0
CIRCLE
8
0
10
0.826907
20
0.673431
40
0.010000
0
INSERT
8
0
2
EPAD
10
0.945050
20
0.735233
41
0.019685
42
0.019685
0
CIRCLE
8
0
10
0.945050
20
0.735233
40
0.010000
0
INSERT
8
0
2
EPAD
10
0.962562
20
0.152922
41
0.019685
42
0.019685
0
CIRCLE
8
0
10
0.962562
20
0.152922
40
0.010000
0
INSERT
8
0
2
EPAD
10
0.963091
20
0.122940
41
0.019685
42
0.019685
0
CIRCLE
8
0
10
0.963091
20
0.122940
40
0.010000
0
INSERT
8
0
2
EPAD
10
0.893602
20
0.156273
41
0.019685
42
0.019685
0
CIRCLE
8
0
10
0.893602
20
0.156273
40
0.010000
0
INSERT
8
0
2
EPAD
10
0.967500
20
-0.227594
41
0.019685
42
0.019685
0
CIRCLE
8
0
10
0.967500
20
-0.227594
40
0.010000
0
INSERT
8
0
2
EPAD
10
0.228556
20
-0.493432
41
0.019685
42
0.019685
0
CIRCLE
8
0
10
0.228556
20
-0.493432
40
0.010000
0
INSERT
8
0
2
EPAD
10
0.364700
20
-0.228235
41
0.019685
42
0.019685
0
CIRCLE
8
0
10
0.364700
20
-0.228235
40
0.010000
0
INSERT
8
0
2
EPAD
10
0.234268
20
0.088750
41
0.019685
42
0.019685
0
CIRCLE
8
0
10
0.234268
20
0.088750
40
0.010000
0
INSERT
8
0
2
EPAD
10
0.282517
20
0.088763
41
0.019685
42
0.019685
0
CIRCLE
8
0
10
0.282517
20
0.088763
40
0.010000
0
INSERT
8
0
2
EPAD
10
0.174377
20
-0.623065
41
0.019685
42
0.019685
0
CIRCLE
8
0
10
0.174377
20
-0.623065
40
0.010000
0
INSERT
8
0
2
EPAD
10
0.607500
20
-0.288594
41
0.019685
42
0.019685
0
CIRCLE
8
0
10
0.607500
20
-0.288594
40
0.010000
0
INSERT
8
0
2
EPAD
10
0.674962
20
-0.721463
41
0.019685
42
0.019685
0
CIRCLE
8
0
10
0.674962
20
-0.721463
40
0.010000
0
INSERT
8
0
2
EPAD
10
0.568780
20
-0.491600
41
0.019685
42
0.019685
0
CIRCLE
8
0
10
0.568780
20
-0.491600
40
0.010000
0
INSERT
8
0
2
EPAD
10
0.578133
20
-0.692983
41
0.019685
42
0.019685
0
CIRCLE
8
0
10
0.578133
20
-0.692983
40
0.010000
0
INSERT
8
0
2
EPAD
10
0.442500
20
-0.630594
41
0.019685
42
0.019685
0
CIRCLE
8
0
10
0.442500
20
-0.630594
40
0.010000
0
INSERT
8
0
2
EPAD
10
0.487500
20
-0.617594
41
0.019685
42
0.019685
0
CIRCLE
8
0
10
0.487500
20
-0.617594
40
0.010000
0
INSERT
8
0
2
EPAD
10
0.408500
20
-0.621594
41
0.019685
42
0.019685
0
CIRCLE
8
0
10
0.408500
20
-0.621594
40
0.010000
0
INSERT
8
0
2
EPAD
10
0.270571
20
-0.688594
41
0.019685
42
0.019685
0
CIRCLE
8
0
10
0.270571
20
-0.688594
40
0.010000
0
INSERT
8
0
2
EPAD
10
0.036042
20
-0.618495
41
0.019685
42
0.019685
0
CIRCLE
8
0
10
0.036042
20
-0.618495
40
0.010000
0
INSERT
8
0
2
EPAD
10
0.052500
20
-0.682594
41
0.019685
42
0.019685
0
CIRCLE
8
0
10
0.052500
20
-0.682594
40
0.010000
0
INSERT
8
0
2
EPAD
10
-0.061500
20
-0.496594
41
0.019685
42
0.019685
0
CIRCLE
8
0
10
-0.061500
20
-0.496594
40
0.010000
0
INSERT
8
0
2
EPAD
10
0.312500
20
-0.275595
41
0.019685
42
0.019685
0
CIRCLE
8
0
10
0.312500
20
-0.275595
40
0.010000
0
INSERT
8
0
2
EPAD
10
0.201063
20
-0.304676
41
0.019685
42
0.019685
0
CIRCLE
8
0
10
0.201063
20
-0.304676
40
0.010000
0
INSERT
8
0
2
EPAD
10
0.605500
20
-0.470594
41
0.019685
42
0.019685
0
CIRCLE
8
0
10
0.605500
20
-0.470594
40
0.010000
0
INSERT
8
0
2
EPAD
10
0.636500
20
-0.382594
41
0.019685
42
0.019685
0
CIRCLE
8
0
10
0.636500
20
-0.382594
40
0.010000
0
INSERT
8
0
2
EPAD
10
0.574448
20
-0.623880
41
0.019685
42
0.019685
0
CIRCLE
8
0
10
0.574448
20
-0.623880
40
0.010000
0
INSERT
8
0
2
EPAD
10
-0.095952
20
-0.072392
41
0.019685
42
0.019685
0
CIRCLE
8
0
10
-0.095952
20
-0.072392
40
0.010000
0
INSERT
8
0
2
EPAD
10
-0.147523
20
-0.189080
41
0.019685
42
0.019685
0
CIRCLE
8
0
10
-0.147523
20
-0.189080
40
0.010000
0
INSERT
8
0
2
EPAD
10
0.028500
20
-0.122594
41
0.019685
42
0.019685
0
CIRCLE
8
0
10
0.028500
20
-0.122594
40
0.010000
0
INSERT
8
0
2
EPAD
10
-0.146500
20
-0.378594
41
0.019685
42
0.019685
0
CIRCLE
8
0
10
-0.146500
20
-0.378594
40
0.010000
0
INSERT
8
0
2
EPAD
10
1.028255
20
0.128715
41
0.019685
42
0.019685
0
CIRCLE
8
0
10
1.028255
20
0.128715
40
0.010000
0
INSERT
8
0
2
EPAD
10
0.903891
20
-0.227680
41
0.019685
42
0.019685
0
CIRCLE
8
0
10
0.903891
20
-0.227680
40
0.010000
0
INSERT
8
0
2
EPAD
10
0.931275
20
-0.258242
41
0.019685
42
0.019685
0
CIRCLE
8
0
10
0.931275
20
-0.258242
40
0.010000
0
INSERT
8
0
2
EPAD
10
1.000713
20
-0.254819
41
0.019685
42
0.019685
0
CIRCLE
8
0
10
1.000713
20
-0.254819
40
0.010000
0
INSERT
8
0
2
EPAD
10
1.159759
20
0.046869
41
0.019685
42
0.019685
0
CIRCLE
8
0
10
1.159759
20
0.046869
40
0.010000
0
INSERT
8
0
2
EPAD
10
1.160500
20
-0.068594
41
0.019685
42
0.019685
0
CIRCLE
8
0
10
1.160500
20
-0.068594
40
0.010000
0
INSERT
8
0
2
EPAD
10
1.160953
20
0.179357
41
0.019685
42
0.019685
0
CIRCLE
8
0
10
1.160953
20
0.179357
40
0.010000
0
INSERT
8
0
2
EPAD
10
1.027133
20
-0.584899
41
0.019685
42
0.019685
0
CIRCLE
8
0
10
1.027133
20
-0.584899
40
0.010000
0
INSERT
8
0
2
EPAD
10
1.021959
20
-0.621484
41
0.019685
42
0.019685
0
CIRCLE
8
0
10
1.021959
20
-0.621484
40
0.010000
0
INSERT
8
0
2
EPAD
10
1.007177
20
-0.658439
41
0.019685
42
0.019685
0
CIRCLE
8
0
10
1.007177
20
-0.658439
40
0.010000
0
INSERT
8
0
2
EPAD
10
0.681772
20
-0.678237
41
0.019685
42
0.019685
0
CIRCLE
8
0
10
0.681772
20
-0.678237
40
0.010000
0
INSERT
8
0
2
EPAD
10
0.710661
20
-0.695273
41
0.019685
42
0.019685
0
CIRCLE
8
0
10
0.710661
20
-0.695273
40
0.010000
0
INSERT
8
0
2
EPAD
10
0.793870
20
-0.695520
41
0.019685
42
0.019685
0
CIRCLE
8
0
10
0.793870
20
-0.695520
40
0.010000
0
INSERT
8
0
2
EPAD
10
0.832883
20
-0.693545
41
0.019685
42
0.019685
0
CIRCLE
8
0
10
0.832883
20
-0.693545
40
0.010000
0
INSERT
8
0
2
EPAD
10
0.868685
20
-0.694286
41
0.019685
42
0.019685
0
CIRCLE
8
0
10
0.868685
20
-0.694286
40
0.010000
0
INSERT
8
0
2
EPAD
10
0.936500
20
-0.690594
41
0.019685
42
0.019685
0
CIRCLE
8
0
10
0.936500
20
-0.690594
40
0.010000
0
INSERT
8
0
2
EPAD
10
0.979932
20
-0.680920
41
0.019685
42
0.019685
0
CIRCLE
8
0
10
0.979932
20
-0.680920
40
0.010000
0
INSERT
8
0
2
EPAD
10
-0.023193
20
0.000371
41
0.019685
42
0.019685
0
CIRCLE
8
0
10
-0.023193
20
0.000371
40
0.010000
0
INSERT
8
0
2
EPAD
10
0.041435
20
0.072740
41
0.019685
42
0.019685
0
CIRCLE
8
0
10
0.041435
20
0.072740
40
0.010000
0
INSERT
8
0
2
EPAD
10
0.076652
20
0.072740
41
0.019685
42
0.019685
0
CIRCLE
8
0
10
0.076652
20
0.072740
40
0.010000
0
INSERT
8
0
2
EPAD
10
0.225376
20
-0.207935
41
0.019685
42
0.019685
0
CIRCLE
8
0
10
0.225376
20
-0.207935
40
0.010000
0
INSERT
8
0
2
EPAD
10
0.488661
20
-0.091919
41
0.019685
42
0.019685
0
CIRCLE
8
0
10
0.488661
20
-0.091919
40
0.010000
0
INSERT
8
0
2
EPAD
10
-0.579233
20
-0.124531
41
0.019685
42
0.019685
0
CIRCLE
8
0
10
-0.579233
20
-0.124531
40
0.010000
0
INSERT
8
0
2
EPAD
10
-0.492063
20
-0.118765
41
0.019685
42
0.019685
0
CIRCLE
8
0
10
-0.492063
20
-0.118765
40
0.010000
0
INSERT
8
0
2
EPAD
10
-0.684569
20
-0.116056
41
0.019685
42
0.019685
0
CIRCLE
8
0
10
-0.684569
20
-0.116056
40
0.010000
0
INSERT
8
0
2
EPAD
10
-0.687503
20
-0.269474
41
0.019685
42
0.019685
0
CIRCLE
8
0
10
-0.687503
20
-0.269474
40
0.010000
0
INSERT
8
0
2
EPAD
10
-0.693941
20
-0.336453
41
0.019685
42
0.019685
0
CIRCLE
8
0
10
-0.693941
20
-0.336453
40
0.010000
0
INSERT
8
0
2
EPAD
10
-0.500337
20
-0.393617
41
0.019685
42
0.019685
0
CIRCLE
8
0
10
-0.500337
20
-0.393617
40
0.010000
0
INSERT
8
0
2
EPAD
10
-0.326388
20
-0.057969
41
0.019685
42
0.019685
0
CIRCLE
8
0
10
-0.326388
20
-0.057969
40
0.010000
0
INSERT
8
0
2
EPAD
10
-0.367556
20
-0.615825
41
0.019685
42
0.019685
0
CIRCLE
8
0
10
-0.367556
20
-0.615825
40
0.010000
0
INSERT
8
0
2
EPAD
10
-0.516500
20
0.065406
41
0.019685
42
0.019685
0
CIRCLE
8
0
10
-0.516500
20
0.065406
40
0.010000
0
INSERT
8
0
2
EPAD
10
-0.347500
20
-0.563594
41
0.019685
42
0.019685
0
CIRCLE
8
0
10
-0.347500
20
-0.563594
40
0.010000
0
INSERT
8
0
2
EPAD
10
-0.626389
20
-0.442561
41
0.019685
42
0.019685
0
CIRCLE
8
0
10
-0.626389
20
-0.442561
40
0.010000
0
INSERT
8
0
2
EPAD
10
-0.608941
20
-0.052453
41
0.019685
42
0.019685
0
CIRCLE
8
0
10
-0.608941
20
-0.052453
40
0.010000
0
INSERT
8
0
2
EPAD
10
-0.501587
20
-0.023453
41
0.019685
42
0.019685
0
CIRCLE
8
0
10
-0.501587
20
-0.023453
40
0.010000
0
INSERT
8
0
2
EPAD
10
-0.154087
20
0.094578
41
0.019685
42
0.019685
0
CIRCLE
8
0
10
-0.154087
20
0.094578
40
0.010000
0
INSERT
8
0
2
EPAD
10
0.563848
20
0.085833
41
0.019685
42
0.019685
0
CIRCLE
8
0
10
0.563848
20
0.085833
40
0.010000
0
INSERT
8
0
2
EPAD
10
0.952854
20
0.060382
41
0.019685
42
0.019685
0
CIRCLE
8
0
10
0.952854
20
0.060382
40
0.010000
0
INSERT
8
0
2
EPAD
10
-0.441941
20
-0.294059
41
0.019685
42
0.019685
0
CIRCLE
8
0
10
-0.441941
20
-0.294059
40
0.010000
0
INSERT
8
0
2
EPAD
10
-0.671518
20
-0.198370
41
0.019685
42
0.019685
0
CIRCLE
8
0
10
-0.671518
20
-0.198370
40
0.010000
0
INSERT
8
0
2
EPAD
10
-0.480925
20
-0.162469
41
0.019685
42
0.019685
0
CIRCLE
8
0
10
-0.480925
20
-0.162469
40
0.010000
0
INSERT
8
0
2
EPAD
10
-0.511941
20
-0.076453
41
0.019685
42
0.019685
0
CIRCLE
8
0
10
-0.511941
20
-0.076453
40
0.010000
0
INSERT
8
0
2
EPAD
10
-0.669941
20
-0.155453
41
0.019685
42
0.019685
0
CIRCLE
8
0
10
-0.669941
20
-0.155453
40
0.010000
0
INSERT
8
0
2
EPAD
10
-0.583941
20
-0.192453
41
0.019685
42
0.019685
0
CIRCLE
8
0
10
-0.583941
20
-0.192453
40
0.010000
0
INSERT
8
0
2
EPAD
10
-0.496500
20
0.035406
41
0.019685
42
0.019685
0
CIRCLE
8
0
10
-0.496500
20
0.035406
40
0.010000
0
INSERT
8
0
2
EPAD
10
-0.292500
20
-0.573595
41
0.019685
42
0.019685
0
CIRCLE
8
0
10
-0.292500
20
-0.573595
40
0.010000
0
INSERT
8
0
2
EPAD
10
-0.492500
20
0.341406
41
0.019685
42
0.019685
0
CIRCLE
8
0
10
-0.492500
20
0.341406
40
0.010000
0
INSERT
8
0
2
EPAD
10
-0.047500
20
0.501406
41
0.019685
42
0.019685
0
CIRCLE
8
0
10
-0.047500
20
0.501406
40
0.010000
0
INSERT
8
0
2
EPAD
10
-0.527500
20
0.316406
41
0.019685
42
0.019685
0
CIRCLE
8
0
10
-0.527500
20
0.316406
40
0.010000
0
INSERT
8
0
2
EPAD
10
-0.011434
20
0.500422
41
0.019685
42
0.019685
0
CIRCLE
8
0
10
-0.011434
20
0.500422
40
0.010000
0
INSERT
8
0
2
EPAD
10
-0.477500
20
0.771406
41
0.019685
42
0.019685
0
CIRCLE
8
0
10
-0.477500
20
0.771406
40
0.010000
0
INSERT
8
0
2
EPAD
10
-0.271439
20
0.787589
41
0.019685
42
0.019685
0
CIRCLE
8
0
10
-0.271439
20
0.787589
40
0.010000
0
INSERT
8
0
2
EPAD
10
-0.652705
20
0.539771
41
0.019685
42
0.019685
0
CIRCLE
8
0
10
-0.652705
20
0.539771
40
0.010000
0
INSERT
8
0
2
EPAD
10
-0.653152
20
0.558907
41
0.019685
42
0.019685
0
CIRCLE
8
0
10
-0.653152
20
0.558907
40
0.010000
0
INSERT
8
0
2
EPAD
10
-0.653741
20
0.578352
41
0.019685
42
0.019685
0
CIRCLE
8
0
10
-0.653741
20
0.578352
40
0.010000
0
INSERT
8
0
2
EPAD
10
0.075610
20
0.663295
41
0.019685
42
0.019685
0
CIRCLE
8
0
10
0.075610
20
0.663295
40
0.010000
0
INSERT
8
0
2
EPAD
10
0.142459
20
0.664806
41
0.019685
42
0.019685
0
CIRCLE
8
0
10
0.142459
20
0.664806
40
0.010000
0
INSERT
8
0
2
EPAD
10
-0.315252
20
0.531848
41
0.019685
42
0.019685
0
CIRCLE
8
0
10
-0.315252
20
0.531848
40
0.010000
0
INSERT
8
0
2
EPAD
10
-0.099846
20
0.596230
41
0.019685
42
0.019685
0
CIRCLE
8
0
10
-0.099846
20
0.596230
40
0.010000
0
INSERT
8
0
2
EPAD
10
-0.999390
20
0.543295
41
0.019685
42
0.019685
0
CIRCLE
8
0
10
-0.999390
20
0.543295
40
0.010000
0
INSERT
8
0
2
EPAD
10
-1.144390
20
0.543295
41
0.019685
42
0.019685
0
CIRCLE
8
0
10
-1.144390
20
0.543295
40
0.010000
0
INSERT
8
0
2
EPAD
10
-1.144390
20
0.518295
41
0.019685
42
0.019685
0
CIRCLE
8
0
10
-1.144390
20
0.518295
40
0.010000
0
INSERT
8
0
2
EPAD
10
-1.144432
20
0.492598
41
0.019685
42
0.019685
0
CIRCLE
8
0
10
-1.144432
20
0.492598
40
0.010000
0
INSERT
8
0
2
EPAD
10
-1.119390
20
0.543295
41
0.019685
42
0.019685
0
CIRCLE
8
0
10
-1.119390
20
0.543295
40
0.010000
0
INSERT
8
0
2
EPAD
10
-1.119390
20
0.518295
41
0.019685
42
0.019685
0
CIRCLE
8
0
10
-1.119390
20
0.518295
40
0.010000
0
INSERT
8
0
2
EPAD
10
-1.119390
20
0.493295
41
0.019685
42
0.019685
0
CIRCLE
8
0
10
-1.119390
20
0.493295
40
0.010000
0
INSERT
8
0
2
EPAD
10
-1.044390
20
0.543295
41
0.019685
42
0.019685
0
CIRCLE
8
0
10
-1.044390
20
0.543295
40
0.010000
0
INSERT
8
0
2
EPAD
10
-1.044390
20
0.518295
41
0.019685
42
0.019685
0
CIRCLE
8
0
10
-1.044390
20
0.518295
40
0.010000
0
INSERT
8
0
2
EPAD
10
-1.044390
20
0.493295
41
0.019685
42
0.019685
0
CIRCLE
8
0
10
-1.044390
20
0.493295
40
0.010000
0
INSERT
8
0
2
EPAD
10
-1.019390
20
0.493295
41
0.019685
42
0.019685
0
CIRCLE
8
0
10
-1.019390
20
0.493295
40
0.010000
0
INSERT
8
0
2
EPAD
10
-1.019390
20
0.518295
41
0.019685
42
0.019685
0
CIRCLE
8
0
10
-1.019390
20
0.518295
40
0.010000
0
INSERT
8
0
2
EPAD
10
-1.019736
20
0.543936
41
0.019685
42
0.019685
0
CIRCLE
8
0
10
-1.019736
20
0.543936
40
0.010000
0
INSERT
8
0
2
EPAD
10
-0.922500
20
0.401406
41
0.019685
42
0.019685
0
CIRCLE
8
0
10
-0.922500
20
0.401406
40
0.010000
0
INSERT
8
0
2
EPAD
10
-0.922500
20
0.426406
41
0.019685
42
0.019685
0
CIRCLE
8
0
10
-0.922500
20
0.426406
40
0.010000
0
INSERT
8
0
2
EPAD
10
-0.902500
20
0.426406
41
0.019685
42
0.019685
0
CIRCLE
8
0
10
-0.902500
20
0.426406
40
0.010000
0
INSERT
8
0
2
EPAD
10
-0.882500
20
0.426406
41
0.019685
42
0.019685
0
CIRCLE
8
0
10
-0.882500
20
0.426406
40
0.010000
0
INSERT
8
0
2
EPAD
10
-0.862500
20
0.426406
41
0.019685
42
0.019685
0
CIRCLE
8
0
10
-0.862500
20
0.426406
40
0.010000
0
INSERT
8
0
2
EPAD
10
-0.902500
20
0.401406
41
0.019685
42
0.019685
0
CIRCLE
8
0
10
-0.902500
20
0.401406
40
0.010000
0
INSERT
8
0
2
EPAD
10
-0.882500
20
0.401406
41
0.019685
42
0.019685
0
CIRCLE
8
0
10
-0.882500
20
0.401406
40
0.010000
0
INSERT
8
0
2
EPAD
10
-0.862500
20
0.401406
41
0.019685
42
0.019685
0
CIRCLE
8
0
10
-0.862500
20
0.401406
40
0.010000
0
INSERT
8
0
2
EPAD
10
-0.712500
20
0.776406
41
0.019685
42
0.019685
0
CIRCLE
8
0
10
-0.712500
20
0.776406
40
0.010000
0
INSERT
8
0
2
EPAD
10
-0.732500
20
0.776406
41
0.019685
42
0.019685
0
CIRCLE
8
0
10
-0.732500
20
0.776406
40
0.010000
0
INSERT
8
0
2
EPAD
10
-0.752500
20
0.776406
41
0.019685
42
0.019685
0
CIRCLE
8
0
10
-0.752500
20
0.776406
40
0.010000
0
INSERT
8
0
2
EPAD
10
-0.773122
20
0.776455
41
0.019685
42
0.019685
0
CIRCLE
8
0
10
-0.773122
20
0.776455
40
0.010000
0
INSERT
8
0
2
EPAD
10
-0.577500
20
0.576406
41
0.019685
42
0.019685
0
CIRCLE
8
0
10
-0.577500
20
0.576406
40
0.010000
0
INSERT
8
0
2
EPAD
10
-0.557500
20
0.576406
41
0.019685
42
0.019685
0
CIRCLE
8
0
10
-0.557500
20
0.576406
40
0.010000
0
INSERT
8
0
2
EPAD
10
-0.537500
20
0.576406
41
0.019685
42
0.019685
0
CIRCLE
8
0
10
-0.537500
20
0.576406
40
0.010000
0
INSERT
8
0
2
EPAD
10
-0.517500
20
0.576406
41
0.019685
42
0.019685
0
CIRCLE
8
0
10
-0.517500
20
0.576406
40
0.010000
0
INSERT
8
0
2
EPAD
10
-0.527500
20
0.596406
41
0.019685
42
0.019685
0
CIRCLE
8
0
10
-0.527500
20
0.596406
40
0.010000
0
INSERT
8
0
2
EPAD
10
-0.563234
20
0.443463
41
0.019685
42
0.019685
0
CIRCLE
8
0
10
-0.563234
20
0.443463
40
0.010000
0
INSERT
8
0
2
EPAD
10
-0.623208
20
0.443797
41
0.019685
42
0.019685
0
CIRCLE
8
0
10
-0.623208
20
0.443797
40
0.010000
0
INSERT
8
0
2
EPAD
10
-0.680052
20
0.443411
41
0.019685
42
0.019685
0
CIRCLE
8
0
10
-0.680052
20
0.443411
40
0.010000
0
INSERT
8
0
2
EPAD
10
-0.772500
20
0.426406
41
0.019685
42
0.019685
0
CIRCLE
8
0
10
-0.772500
20
0.426406
40
0.010000
0
INSERT
8
0
2
EPAD
10
-0.752500
20
0.426406
41
0.019685
42
0.019685
0
CIRCLE
8
0
10
-0.752500
20
0.426406
40
0.010000
0
INSERT
8
0
2
EPAD
10
-0.568964
20
-0.508708
41
0.019685
42
0.019685
0
CIRCLE
8
0
10
-0.568964
20
-0.508708
40
0.010000
0
INSERT
8
0
2
EPAD
10
1.035737
20
-0.702013
41
0.019685
42
0.019685
0
CIRCLE
8
0
10
1.035737
20
-0.702013
40
0.010000
0
INSERT
8
0
2
EPAD
10
-0.438436
20
-0.633004
41
0.019685
42
0.019685
0
CIRCLE
8
0
10
-0.438436
20
-0.633004
40
0.010000
0
INSERT
8
0
2
EPAD
10
1.160335
20
-0.625602
41
0.019685
42
0.019685
0
CIRCLE
8
0
10
1.160335
20
-0.625602
40
0.010000
0
INSERT
8
0
2
EPAD
10
0.956052
20
-0.425977
41
0.019685
42
0.019685
0
CIRCLE
8
0
10
0.956052
20
-0.425977
40
0.010000
0
INSERT
8
0
2
EPAD
10
1.035737
20
-0.425977
41
0.019685
42
0.019685
0
CIRCLE
8
0
10
1.035737
20
-0.425977
40
0.010000
0
INSERT
8
0
2
EPAD
10
1.115422
20
-0.425977
41
0.019685
42
0.019685
0
CIRCLE
8
0
10
1.115422
20
-0.425977
40
0.010000
0
INSERT
8
0
2
EPAD
10
0.995894
20
-0.356968
41
0.019685
42
0.019685
0
CIRCLE
8
0
10
0.995894
20
-0.356968
40
0.010000
0
INSERT
8
0
2
EPAD
10
1.075580
20
-0.356968
41
0.019685
42
0.019685
0
CIRCLE
8
0
10
1.075580
20
-0.356968
40
0.010000
0
INSERT
8
0
2
EPAD
10
1.002854
20
-0.300799
41
0.019685
42
0.019685
0
CIRCLE
8
0
10
1.002854
20
-0.300799
40
0.010000
0
INSERT
8
0
2
EPAD
10
1.170177
20
-0.271272
41
0.019685
42
0.019685
0
CIRCLE
8
0
10
1.170177
20
-0.271272
40
0.010000
0
INSERT
8
0
2
EPAD
10
1.075580
20
-0.218950
41
0.019685
42
0.019685
0
CIRCLE
8
0
10
1.075580
20
-0.218950
40
0.010000
0
INSERT
8
0
2
EPAD
10
1.160335
20
-0.192531
41
0.019685
42
0.019685
0
CIRCLE
8
0
10
1.160335
20
-0.192531
40
0.010000
0
INSERT
8
0
2
EPAD
10
0.438099
20
-0.080931
41
0.019685
42
0.019685
0
CIRCLE
8
0
10
0.438099
20
-0.080931
40
0.010000
0
INSERT
8
0
2
EPAD
10
1.115422
20
-0.011922
41
0.019685
42
0.019685
0
CIRCLE
8
0
10
1.115422
20
-0.011922
40
0.010000
0
INSERT
8
0
2
EPAD
10
1.061909
20
0.083059
41
0.019685
42
0.019685
0
CIRCLE
8
0
10
1.061909
20
0.083059
40
0.010000
0
INSERT
8
0
2
EPAD
10
-0.757176
20
0.195105
41
0.019685
42
0.019685
0
CIRCLE
8
0
10
-0.757176
20
0.195105
40
0.010000
0
INSERT
8
0
2
EPAD
10
-0.040011
20
0.195105
41
0.019685
42
0.019685
0
CIRCLE
8
0
10
-0.040011
20
0.195105
40
0.010000
0
INSERT
8
0
2
EPAD
10
0.358414
20
0.195105
41
0.019685
42
0.019685
0
CIRCLE
8
0
10
0.358414
20
0.195105
40
0.010000
0
INSERT
8
0
2
EPAD
10
0.079517
20
0.264114
41
0.019685
42
0.019685
0
CIRCLE
8
0
10
0.079517
20
0.264114
40
0.010000
0
INSERT
8
0
2
EPAD
10
0.238887
20
0.264114
41
0.019685
42
0.019685
0
CIRCLE
8
0
10
0.238887
20
0.264114
40
0.010000
0
INSERT
8
0
2
EPAD
10
0.477942
20
0.264114
41
0.019685
42
0.019685
0
CIRCLE
8
0
10
0.477942
20
0.264114
40
0.010000
0
INSERT
8
0
2
EPAD
10
0.358414
20
0.333123
41
0.019685
42
0.019685
0
CIRCLE
8
0
10
0.358414
20
0.333123
40
0.010000
0
INSERT
8
0
2
EPAD
10
0.756839
20
0.333123
41
0.019685
42
0.019685
0
CIRCLE
8
0
10
0.756839
20
0.333123
40
0.010000
0
INSERT
8
0
2
EPAD
10
0.916209
20
0.333123
41
0.019685
42
0.019685
0
CIRCLE
8
0
10
0.916209
20
0.333123
40
0.010000
0
INSERT
8
0
2
EPAD
10
0.995894
20
0.333123
41
0.019685
42
0.019685
0
CIRCLE
8
0
10
0.995894
20
0.333123
40
0.010000
0
INSERT
8
0
2
EPAD
10
0.956052
20
0.402132
41
0.019685
42
0.019685
0
CIRCLE
8
0
10
0.956052
20
0.402132
40
0.010000
0
INSERT
8
0
2
EPAD
10
1.035737
20
0.402132
41
0.019685
42
0.019685
0
CIRCLE
8
0
10
1.035737
20
0.402132
40
0.010000
0
INSERT
8
0
2
EPAD
10
1.115422
20
0.402132
41
0.019685
42
0.019685
0
CIRCLE
8
0
10
1.115422
20
0.402132
40
0.010000
0
INSERT
8
0
2
EPAD
10
0.995894
20
0.471141
41
0.019685
42
0.019685
0
CIRCLE
8
0
10
0.995894
20
0.471141
40
0.010000
0
INSERT
8
0
2
EPAD
10
1.075580
20
0.471141
41
0.019685
42
0.019685
0
CIRCLE
8
0
10
1.075580
20
0.471141
40
0.010000
0
INSERT
8
0
2
EPAD
10
0.796682
20
0.540150
41
0.019685
42
0.019685
0
CIRCLE
8
0
10
0.796682
20
0.540150
40
0.010000
0
INSERT
8
0
2
EPAD
10
0.876367
20
0.540150
41
0.019685
42
0.019685
0
CIRCLE
8
0
10
0.876367
20
0.540150
40
0.010000
0
INSERT
8
0
2
EPAD
10
0.956052
20
0.540150
41
0.019685
42
0.019685
0
CIRCLE
8
0
10
0.956052
20
0.540150
40
0.010000
0
INSERT
8
0
2
EPAD
10
1.108445
20
-0.701194
41
0.019685
42
0.019685
0
CIRCLE
8
0
10
1.108445
20
-0.701194
40
0.010000
0
INSERT
8
0
2
EPAD
10
-0.473209
20
-0.649506
41
0.019685
42
0.019685
0
CIRCLE
8
0
10
-0.473209
20
-0.649506
40
0.010000
0
INSERT
8
0
2
EPAD
10
1.150492
20
-0.674815
41
0.019685
42
0.019685
0
CIRCLE
8
0
10
1.150492
20
-0.674815
40
0.010000
0
INSERT
8
0
2
EPAD
10
-0.682106
20
-0.597817
41
0.019685
42
0.019685
0
CIRCLE
8
0
10
-0.682106
20
-0.597817
40
0.010000
0
INSERT
8
0
2
EPAD
10
-0.622421
20
-0.597817
41
0.019685
42
0.019685
0
CIRCLE
8
0
10
-0.622421
20
-0.597817
40
0.010000
0
INSERT
8
0
2
EPAD
10
-0.562736
20
-0.597817
41
0.019685
42
0.019685
0
CIRCLE
8
0
10
-0.562736
20
-0.597817
40
0.010000
0
INSERT
8
0
2
EPAD
10
-0.592579
20
-0.546129
41
0.019685
42
0.019685
0
CIRCLE
8
0
10
-0.592579
20
-0.546129
40
0.010000
0
INSERT
8
0
2
EPAD
10
0.750335
20
-0.494440
41
0.019685
42
0.019685
0
CIRCLE
8
0
10
0.750335
20
-0.494440
40
0.010000
0
INSERT
8
0
2
EPAD
10
0.750335
20
-0.391063
41
0.019685
42
0.019685
0
CIRCLE
8
0
10
0.750335
20
-0.391063
40
0.010000
0
INSERT
8
0
2
EPAD
10
0.929390
20
-0.391063
41
0.019685
42
0.019685
0
CIRCLE
8
0
10
0.929390
20
-0.391063
40
0.010000
0
INSERT
8
0
2
EPAD
10
0.959232
20
-0.339374
41
0.019685
42
0.019685
0
CIRCLE
8
0
10
0.959232
20
-0.339374
40
0.010000
0
INSERT
8
0
2
EPAD
10
1.138287
20
-0.339374
41
0.019685
42
0.019685
0
CIRCLE
8
0
10
1.138287
20
-0.339374
40
0.010000
0
INSERT
8
0
2
EPAD
10
0.750335
20
-0.287686
41
0.019685
42
0.019685
0
CIRCLE
8
0
10
0.750335
20
-0.287686
40
0.010000
0
INSERT
8
0
2
EPAD
10
1.160335
20
-0.231902
41
0.019685
42
0.019685
0
CIRCLE
8
0
10
1.160335
20
-0.231902
40
0.010000
0
INSERT
8
0
2
EPAD
10
0.750335
20
-0.184309
41
0.019685
42
0.019685
0
CIRCLE
8
0
10
0.750335
20
-0.184309
40
0.010000
0
INSERT
8
0
2
EPAD
10
0.481752
20
-0.132620
41
0.019685
42
0.019685
0
CIRCLE
8
0
10
0.481752
20
-0.132620
40
0.010000
0
INSERT
8
0
2
EPAD
10
1.091437
20
-0.182689
41
0.019685
42
0.019685
0
CIRCLE
8
0
10
1.091437
20
-0.182689
40
0.010000
0
INSERT
8
0
2
EPAD
10
0.750335
20
-0.080931
41
0.019685
42
0.019685
0
CIRCLE
8
0
10
0.750335
20
-0.080931
40
0.010000
0
INSERT
8
0
2
EPAD
10
0.481752
20
-0.029243
41
0.019685
42
0.019685
0
CIRCLE
8
0
10
0.481752
20
-0.029243
40
0.010000
0
INSERT
8
0
2
EPAD
10
-0.920846
20
0.022446
41
0.019685
42
0.019685
0
CIRCLE
8
0
10
-0.920846
20
0.022446
40
0.010000
0
INSERT
8
0
2
EPAD
10
0.750335
20
0.022446
41
0.019685
42
0.019685
0
CIRCLE
8
0
10
0.750335
20
0.022446
40
0.010000
0
INSERT
8
0
2
EPAD
10
0.481752
20
0.177511
41
0.019685
42
0.019685
0
CIRCLE
8
0
10
0.481752
20
0.177511
40
0.010000
0
INSERT
8
0
2
EPAD
10
0.750335
20
0.229200
41
0.019685
42
0.019685
0
CIRCLE
8
0
10
0.750335
20
0.229200
40
0.010000
0
INSERT
8
0
2
EPAD
10
1.108445
20
0.229200
41
0.019685
42
0.019685
0
CIRCLE
8
0
10
1.108445
20
0.229200
40
0.010000
0
INSERT
8
0
2
EPAD
10
-0.115098
20
0.280889
41
0.019685
42
0.019685
0
CIRCLE
8
0
10
-0.115098
20
0.280889
40
0.010000
0
INSERT
8
0
2
EPAD
10
-0.055413
20
0.280889
41
0.019685
42
0.019685
0
CIRCLE
8
0
10
-0.055413
20
0.280889
40
0.010000
0
INSERT
8
0
2
EPAD
10
0.004272
20
0.280889
41
0.019685
42
0.019685
0
CIRCLE
8
0
10
0.004272
20
0.280889
40
0.010000
0
INSERT
8
0
2
EPAD
10
0.123642
20
0.280889
41
0.019685
42
0.019685
0
CIRCLE
8
0
10
0.123642
20
0.280889
40
0.010000
0
INSERT
8
0
2
EPAD
10
0.302697
20
0.280889
41
0.019685
42
0.019685
0
CIRCLE
8
0
10
0.302697
20
0.280889
40
0.010000
0
INSERT
8
0
2
EPAD
10
0.362382
20
0.280889
41
0.019685
42
0.019685
0
CIRCLE
8
0
10
0.362382
20
0.280889
40
0.010000
0
INSERT
8
0
2
EPAD
10
0.422067
20
0.280889
41
0.019685
42
0.019685
0
CIRCLE
8
0
10
0.422067
20
0.280889
40
0.010000
0
INSERT
8
0
2
EPAD
10
0.541437
20
0.280889
41
0.019685
42
0.019685
0
CIRCLE
8
0
10
0.541437
20
0.280889
40
0.010000
0
INSERT
8
0
2
EPAD
10
0.093799
20
0.332577
41
0.019685
42
0.019685
0
CIRCLE
8
0
10
0.093799
20
0.332577
40
0.010000
0
INSERT
8
0
2
EPAD
10
1.048760
20
0.332577
41
0.019685
42
0.019685
0
CIRCLE
8
0
10
1.048760
20
0.332577
40
0.010000
0
INSERT
8
0
2
EPAD
10
0.362382
20
0.384266
41
0.019685
42
0.019685
0
CIRCLE
8
0
10
0.362382
20
0.384266
40
0.010000
0
INSERT
8
0
2
EPAD
10
0.481752
20
0.384266
41
0.019685
42
0.019685
0
CIRCLE
8
0
10
0.481752
20
0.384266
40
0.010000
0
INSERT
8
0
2
EPAD
10
0.780177
20
0.384266
41
0.019685
42
0.019685
0
CIRCLE
8
0
10
0.780177
20
0.384266
40
0.010000
0
INSERT
8
0
2
EPAD
10
0.899547
20
0.384266
41
0.019685
42
0.019685
0
CIRCLE
8
0
10
0.899547
20
0.384266
40
0.010000
0
INSERT
8
0
2
EPAD
10
1.078602
20
0.384266
41
0.019685
42
0.019685
0
CIRCLE
8
0
10
1.078602
20
0.384266
40
0.010000
0
INSERT
8
0
2
EPAD
10
0.750335
20
0.435954
41
0.019685
42
0.019685
0
CIRCLE
8
0
10
0.750335
20
0.435954
40
0.010000
0
INSERT
8
0
2
EPAD
10
0.929390
20
0.435954
41
0.019685
42
0.019685
0
CIRCLE
8
0
10
0.929390
20
0.435954
40
0.010000
0
INSERT
8
0
2
EPAD
10
0.780177
20
0.487643
41
0.019685
42
0.019685
0
CIRCLE
8
0
10
0.780177
20
0.487643
40
0.010000
0
INSERT
8
0
2
EPAD
10
0.959232
20
0.487643
41
0.019685
42
0.019685
0
CIRCLE
8
0
10
0.959232
20
0.487643
40
0.010000
0
INSERT
8
0
2
EPAD
10
1.138287
20
0.487643
41
0.019685
42
0.019685
0
CIRCLE
8
0
10
1.138287
20
0.487643
40
0.010000
0
INSERT
8
0
2
EPAD
10
-0.065081
20
0.756406
41
0.019685
42
0.019685
0
CIRCLE
8
0
10
-0.065081
20
0.756406
40
0.010000
0
INSERT
8
0
2
EPAD
10
-0.012500
20
0.756406
41
0.019685
42
0.019685
0
CIRCLE
8
0
10
-0.012500
20
0.756406
40
0.010000
0
INSERT
8
0
2
EPAD
10
-0.067500
20
0.688406
41
0.019685
42
0.019685
0
CIRCLE
8
0
10
-0.067500
20
0.688406
40
0.010000
0
INSERT
8
0
2
EPAD
10
-0.012500
20
0.688406
41
0.019685
42
0.019685
0
CIRCLE
8
0
10
-0.012500
20
0.688406
40
0.010000
0
INSERT
8
0
2
EPAD
10
-0.331119
20
-0.123594
41
0.019685
42
0.019685
0
CIRCLE
8
0
10
-0.331119
20
-0.123594
40
0.010000
0
INSERT
8
0
2
EPAD
10
-0.342500
20
-0.188594
41
0.019685
42
0.019685
0
CIRCLE
8
0
10
-0.342500
20
-0.188594
40
0.010000
0
INSERT
8
0
2
EPAD
10
-0.285618
20
-0.197469
41
0.025000
42
0.025000
0
CIRCLE
8
0
10
-0.285618
20
-0.197469
40
0.006000
0
INSERT
8
0
2
EPAD
10
-0.285618
20
-0.276209
41
0.025000
42
0.025000
0
CIRCLE
8
0
10
-0.285618
20
-0.276209
40
0.006000
0
INSERT
8
0
2
EPAD
10
0.043670
20
0.756406
41
0.019685
42
0.019685
0
CIRCLE
8
0
10
0.043670
20
0.756406
40
0.010000
0
INSERT
8
0
2
EPAD
10
0.113783
20
0.756596
41
0.019685
42
0.019685
0
CIRCLE
8
0
10
0.113783
20
0.756596
40
0.010000
0
INSERT
8
0
2
EPAD
10
0.168109
20
0.755981
41
0.019685
42
0.019685
0
CIRCLE
8
0
10
0.168109
20
0.755981
40
0.010000
0
INSERT
8
0
2
EPAD
10
-0.127132
20
0.765385
41
0.019685
42
0.019685
0
CIRCLE
8
0
10
-0.127132
20
0.765385
40
0.010000
0
INSERT
8
0
2
EPAD
10
0.353248
20
0.683453
41
0.019685
42
0.019685
0
CIRCLE
8
0
10
0.353248
20
0.683453
40
0.010000
0
INSERT
8
0
2
EPAD
10
0.382776
20
0.683453
41
0.019685
42
0.019685
0
CIRCLE
8
0
10
0.382776
20
0.683453
40
0.010000
0
INSERT
8
0
2
EPAD
10
0.382776
20
0.712980
41
0.019685
42
0.019685
0
CIRCLE
8
0
10
0.382776
20
0.712980
40
0.010000
0
INSERT
8
0
2
EPAD
10
0.353248
20
0.712980
41
0.019685
42
0.019685
0
CIRCLE
8
0
10
0.353248
20
0.712980
40
0.010000
0
INSERT
8
0
2
EPAD
10
0.353248
20
0.742508
41
0.019685
42
0.019685
0
CIRCLE
8
0
10
0.353248
20
0.742508
40
0.010000
0
INSERT
8
0
2
EPAD
10
0.382776
20
0.742508
41
0.019685
42
0.019685
0
CIRCLE
8
0
10
0.382776
20
0.742508
40
0.010000
0
INSERT
8
0
2
EPAD
10
0.353248
20
0.772035
41
0.019685
42
0.019685
0
CIRCLE
8
0
10
0.353248
20
0.772035
40
0.010000
0
INSERT
8
0
2
EPAD
10
0.382776
20
0.772035
41
0.019685
42
0.019685
0
CIRCLE
8
0
10
0.382776
20
0.772035
40
0.010000
0
INSERT
8
0
2
EPAD
10
0.244980
20
0.772035
41
0.019685
42
0.019685
0
CIRCLE
8
0
10
0.244980
20
0.772035
40
0.010000
0
INSERT
8
0
2
EPAD
10
0.274508
20
0.772035
41
0.019685
42
0.019685
0
CIRCLE
8
0
10
0.274508
20
0.772035
40
0.010000
0
INSERT
8
0
2
EPAD
10
0.304035
20
0.772035
41
0.019685
42
0.019685
0
CIRCLE
8
0
10
0.304035
20
0.772035
40
0.010000
0
INSERT
8
0
2
EPAD
10
0.329051
20
0.772035
41
0.019685
42
0.019685
0
CIRCLE
8
0
10
0.329051
20
0.772035
40
0.010000
0
INSERT
8
0
2
EPAD
10
-0.502902
20
0.443948
41
0.019685
42
0.019685
0
CIRCLE
8
0
10
-0.502902
20
0.443948
40
0.010000
0
INSERT
8
0
2
EPAD
10
-1.164557
20
0.124820
41
0.019685
42
0.019685
0
CIRCLE
8
0
10
-1.164557
20
0.124820
40
0.010000
0
INSERT
8
0
2
EPAD
10
-0.881698
20
0.204289
41
0.019685
42
0.019685
0
CIRCLE
8
0
10
-0.881698
20
0.204289
40
0.010000
0
INSERT
8
0
2
EPAD
10
0.212413
20
-0.111063
41
0.019685
42
0.019685
0
CIRCLE
8
0
10
0.212413
20
-0.111063
40
0.010000
0
INSERT
8
0
2
EPAD
10
0.320681
20
-0.063610
41
0.031496
42
0.031496
0
CIRCLE
8
0
10
0.320681
20
-0.063610
40
0.010000
0
INSERT
8
0
2
EPAD
10
0.103221
20
-0.137032
41
0.019685
42
0.019685
0
CIRCLE
8
0
10
0.103221
20
-0.137032
40
0.010000
0
INSERT
8
0
2
EPAD
10
0.059500
20
-0.278594
41
0.019685
42
0.019685
0
CIRCLE
8
0
10
0.059500
20
-0.278594
40
0.010000
0
INSERT
8
0
2
EPAD
10
0.327500
20
-0.684595
41
0.019685
42
0.019685
0
CIRCLE
8
0
10
0.327500
20
-0.684595
40
0.010000
0
INSERT
8
0
2
EPAD
10
0.261604
20
-0.470477
41
0.019685
42
0.019685
0
CIRCLE
8
0
10
0.261604
20
-0.470477
40
0.010000
0
INSERT
8
0
2
EPAD
10
0.230596
20
-0.371846
41
0.019685
42
0.019685
0
CIRCLE
8
0
10
0.230596
20
-0.371846
40
0.010000
0
INSERT
8
0
2
EPAD
10
0.131500
20
-0.620595
41
0.019685
42
0.019685
0
CIRCLE
8
0
10
0.131500
20
-0.620595
40
0.010000
0
INSERT
8
0
2
EPAD
10
0.081500
20
-0.475594
41
0.019685
42
0.019685
0
CIRCLE
8
0
10
0.081500
20
-0.475594
40
0.010000
0
INSERT
8
0
2
EPAD
10
-0.032244
20
-0.213759
41
0.019685
42
0.019685
0
CIRCLE
8
0
10
-0.032244
20
-0.213759
40
0.010000
0
INSERT
8
0
2
EPAD
10
0.104865
20
-0.365760
41
0.019685
42
0.019685
0
CIRCLE
8
0
10
0.104865
20
-0.365760
40
0.010000
0
INSERT
8
0
2
EPAD
10
0.123377
20
-0.479663
41
0.019685
42
0.019685
0
CIRCLE
8
0
10
0.123377
20
-0.479663
40
0.010000
0
INSERT
8
0
2
EPAD
10
-0.331500
20
0.239406
41
0.019685
42
0.019685
0
CIRCLE
8
0
10
-0.331500
20
0.239406
40
0.010000
0
INSERT
8
0
2
EPAD
10
0.060734
20
0.473437
41
0.019685
42
0.019685
0
CIRCLE
8
0
10
0.060734
20
0.473437
40
0.010000
0
INSERT
8
0
2
EPAD
10
-0.469994
20
0.253979
41
0.019685
42
0.019685
0
CIRCLE
8
0
10
-0.469994
20
0.253979
40
0.010000
0
INSERT
8
0
2
EPAD
10
-0.334319
20
0.276390
41
0.019685
42
0.019685
0
CIRCLE
8
0
10
-0.334319
20
0.276390
40
0.010000
0
INSERT
8
0
2
EPAD
10
0.118500
20
0.485406
41
0.019685
42
0.019685
0
CIRCLE
8
0
10
0.118500
20
0.485406
40
0.010000
0
INSERT
8
0
2
EPAD
10
0.333500
20
0.484406
41
0.019685
42
0.019685
0
CIRCLE
8
0
10
0.333500
20
0.484406
40
0.010000
0
INSERT
8
0
2
EPAD
10
0.666041
20
0.487255
41
0.019685
42
0.019685
0
CIRCLE
8
0
10
0.666041
20
0.487255
40
0.010000
0
INSERT
8
0
2
EPAD
10
0.672551
20
-0.413117
41
0.019685
42
0.019685
0
CIRCLE
8
0
10
0.672551
20
-0.413117
40
0.010000
0
INSERT
8
0
2
EPAD
10
-0.505037
20
0.279446
41
0.019685
42
0.019685
0
CIRCLE
8
0
10
-0.505037
20
0.279446
40
0.010000
0
INSERT
8
0
2
EPAD
10
-0.039319
20
0.426390
41
0.019685
42
0.019685
0
CIRCLE
8
0
10
-0.039319
20
0.426390
40
0.010000
0
INSERT
8
0
2
EPAD
10
0.321752
20
0.000382
41
0.031496
42
0.031496
0
CIRCLE
8
0
10
0.321752
20
0.000382
40
0.010000
0
INSERT
8
0
2
EPAD
10
0.320681
20
0.062374
41
0.031496
42
0.031496
0
CIRCLE
8
0
10
0.320681
20
0.062374
40
0.010000
0
INSERT
8
0
2
EPAD
10
0.095083
20
0.422246
41
0.019685
42
0.019685
0
CIRCLE
8
0
10
0.095083
20
0.422246
40
0.010000
0
INSERT
8
0
2
EPAD
10
0.359743
20
0.436248
41
0.019685
42
0.019685
0
CIRCLE
8
0
10
0.359743
20
0.436248
40
0.010000
0
INSERT
8
0
2
EPAD
10
0.700030
20
0.474871
41
0.019685
42
0.019685
0
CIRCLE
8
0
10
0.700030
20
0.474871
40
0.010000
0
INSERT
8
0
2
EPAD
10
0.257513
20
-0.000618
41
0.031496
42
0.031496
0
CIRCLE
8
0
10
0.257513
20
-0.000618
40
0.010000
0
INSERT
8
0
2
EPAD
10
-1.044390
20
0.693295
41
0.122047
42
0.122047
0
CIRCLE
8
0
10
-1.044390
20
0.693295
40
0.010000
0
INSERT
8
0
2
EPAD
10
-1.044390
20
-0.645287
41
0.122047
42
0.122047
0
CIRCLE
8
0
10
-1.044390
20
-0.645287
40
0.010000
0
INSERT
8
0
2
EPAD
10
1.081594
20
0.693295
41
0.122047
42
0.122047
0
CIRCLE
8
0
10
1.081594
20
0.693295
40
0.010000
0
INSERT
8
0
2
EPAD
10
-0.714500
20
-0.705594
41
0.080000
42
0.080000
0
CIRCLE
8
0
10
-0.714500
20
-0.705594
40
0.010000
0
INSERT
8
0
2
EPAD
10
-0.614500
20
-0.705594
41
0.080000
42
0.080000
0
CIRCLE
8
0
10
-0.614500
20
-0.705594
40
0.010000
0
INSERT
8
0
2
EPAD
10
-0.514500
20
-0.705594
41
0.080000
42
0.080000
0
CIRCLE
8
0
10
-0.514500
20
-0.705594
40
0.010000
0
INSERT
8
0
2
EPAD
10
-0.414500
20
-0.705594
41
0.080000
42
0.080000
0
CIRCLE
8
0
10
-0.414500
20
-0.705594
40
0.010000
0
INSERT
8
0
2
EPAD
10
-0.314500
20
-0.705594
41
0.080000
42
0.080000
0
CIRCLE
8
0
10
-0.314500
20
-0.705594
40
0.010000
0
INSERT
8
0
2
EPAD
10
-0.214500
20
-0.705594
41
0.080000
42
0.080000
0
CIRCLE
8
0
10
-0.214500
20
-0.705594
40
0.010000
0
INSERT
8
0
2
EPAD
10
-0.114500
20
-0.705594
41
0.080000
42
0.080000
0
CIRCLE
8
0
10
-0.114500
20
-0.705594
40
0.010000
0
INSERT
8
0
2
EPAD
10
-0.014500
20
-0.705594
41
0.080000
42
0.080000
0
CIRCLE
8
0
10
-0.014500
20
-0.705594
40
0.010000
0
INSERT
8
0
2
EPAD
10
-1.038398
20
0.374358
41
0.019882
42
0.019882
0
CIRCLE
8
0
10
-1.038398
20
0.374358
40
0.010000
0
INSERT
8
0
2
EPAD
10
-1.038398
20
0.216878
41
0.019882
42
0.019882
0
CIRCLE
8
0
10
-1.038398
20
0.216878
40
0.010000
0
POLYLINE
8
0
66
1
70
1
40
0
41
0
0
VERTEX
8
0
10
-1.156508
20
0.389343
0
VERTEX
8
0
10
-1.156508
20
0.424335
0
VERTEX
8
0
10
-1.156229
20
0.427197
0
VERTEX
8
0
10
-1.155428
20
0.429844
0
VERTEX
8
0
10
-1.154155
20
0.432225
0
VERTEX
8
0
10
-1.152461
20
0.434288
0
VERTEX
8
0
10
-1.150398
20
0.435981
0
VERTEX
8
0
10
-1.148018
20
0.437255
0
VERTEX
8
0
10
-1.145370
20
0.438056
0
VERTEX
8
0
10
-1.142508
20
0.438335
0
VERTEX
8
0
10
-1.091768
20
0.438335
0
VERTEX
8
0
10
-1.088905
20
0.438056
0
VERTEX
8
0
10
-1.086258
20
0.437255
0
VERTEX
8
0
10
-1.083878
20
0.435981
0
VERTEX
8
0
10
-1.081815
20
0.434288
0
VERTEX
8
0
10
-1.080121
20
0.432225
0
VERTEX
8
0
10
-1.078848
20
0.429844
0
VERTEX
8
0
10
-1.078046
20
0.427197
0
VERTEX
8
0
10
-1.077768
20
0.424335
0
VERTEX
8
0
10
-1.077768
20
0.389343
0
VERTEX
8
0
10
-1.078046
20
0.386480
0
VERTEX
8
0
10
-1.078848
20
0.383833
0
VERTEX
8
0
10
-1.080121
20
0.381452
0
VERTEX
8
0
10
-1.081815
20
0.379389
0
VERTEX
8
0
10
-1.083878
20
0.377696
0
VERTEX
8
0
10
-1.086258
20
0.376422
0
VERTEX
8
0
10
-1.088905
20
0.375621
0
VERTEX
8
0
10
-1.091768
20
0.375343
0
VERTEX
8
0
10
-1.142508
20
0.375343
0
VERTEX
8
0
10
-1.145370
20
0.375621
0
VERTEX
8
0
10
-1.148018
20
0.376422
0
VERTEX
8
0
10
-1.150398
20
0.377696
0
VERTEX
8
0
10
-1.152461
20
0.379389
0
VERTEX
8
0
10
-1.154155
20
0.381452
0
VERTEX
8
0
10
-1.155428
20
0.383833
0
VERTEX
8
0
10
-1.156229
20
0.386480
0
VERTEX
8
0
10
-1.156508
20
0.389343
0
SEQEND
8
0
0
CIRCLE
8
0
10
-1.117138
20
0.406839
40
0.010000
0
POLYLINE
8
0
66
1
70
1
40
0
41
0
0
VERTEX
8
0
10
-1.156508
20
0.166902
0
VERTEX
8
0
10
-1.156508
20
0.201894
0
VERTEX
8
0
10
-1.156229
20
0.204756
0
VERTEX
8
0
10
-1.155428
20
0.207404
0
VERTEX
8
0
10
-1.154155
20
0.209784
0
VERTEX
8
0
10
-1.152461
20
0.211847
0
VERTEX
8
0
10
-1.150398
20
0.213541
0
VERTEX
8
0
10
-1.148018
20
0.214814
0
VERTEX
8
0
10
-1.145370
20
0.215615
0
VERTEX
8
0
10
-1.142508
20
0.215894
0
VERTEX
8
0
10
-1.091768
20
0.215894
0
VERTEX
8
0
10
-1.088905
20
0.215615
0
VERTEX
8
0
10
-1.086258
20
0.214814
0
VERTEX
8
0
10
-1.083878
20
0.213541
0
VERTEX
8
0
10
-1.081815
20
0.211847
0
VERTEX
8
0
10
-1.080121
20
0.209784
0
VERTEX
8
0
10
-1.078848
20
0.207404
0
VERTEX
8
0
10
-1.078046
20
0.204756
0
VERTEX
8
0
10
-1.077768
20
0.201894
0
VERTEX
8
0
10
-1.077768
20
0.166902
0
VERTEX
8
0
10
-1.078046
20
0.164039
0
VERTEX
8
0
10
-1.078848
20
0.161392
0
VERTEX
8
0
10
-1.080121
20
0.159011
0
VERTEX
8
0
10
-1.081815
20
0.156948
0
VERTEX
8
0
10
-1.083878
20
0.155255
0
VERTEX
8
0
10
-1.086258
20
0.153981
0
VERTEX
8
0
10
-1.088905
20
0.153180
0
VERTEX
8
0
10
-1.091768
20
0.152902
0
VERTEX
8
0
10
-1.142508
20
0.152902
0
VERTEX
8
0
10
-1.145370
20
0.153180
0
VERTEX
8
0
10
-1.148018
20
0.153981
0
VERTEX
8
0
10
-1.150398
20
0.155255
0
VERTEX
8
0
10
-1.152461
20
0.156948
0
VERTEX
8
0
10
-1.154155
20
0.159011
0
VERTEX
8
0
10
-1.155428
20
0.161392
0
VERTEX
8
0
10
-1.156229
20
0.164039
0
VERTEX
8
0
10
-1.156508
20
0.166902
0
SEQEND
8
0
0
CIRCLE
8
0
10
-1.117138
20
0.184398
40
0.010000
0
POLYLINE
8
0
66
1
40
0.008000
41
0.008000
0
VERTEX
8
0
10
-1.075886
20
0.811406
0
VERTEX
8
0
10
-1.100035
20
0.809056
0
VERTEX
8
0
10
-1.122368
20
0.802293
0
VERTEX
8
0
10
-1.142452
20
0.791552
0
VERTEX
8
0
10
-1.159855
20
0.777264
0
VERTEX
8
0
10
-1.174143
20
0.759862
0
VERTEX
8
0
10
-1.184884
20
0.739778
0
VERTEX
8
0
10
-1.191646
20
0.717445
0
VERTEX
8
0
10
-1.193996
20
0.693295
0
SEQEND
8
0
0
POLYLINE
8
0
66
1
40
0.008000
41
0.008000
0
VERTEX
8
0
10
1.081594
20
0.811406
0
VERTEX
8
0
10
1.105744
20
0.809056
0
VERTEX
8
0
10
1.128077
20
0.802293
0
VERTEX
8
0
10
1.148161
20
0.791552
0
VERTEX
8
0
10
1.165563
20
0.777264
0
VERTEX
8
0
10
1.179852
20
0.759862
0
VERTEX
8
0
10
1.190593
20
0.739778
0
VERTEX
8
0
10
1.197355
20
0.717445
0
VERTEX
8
0
10
1.199705
20
0.693295
0
SEQEND
8
0
0
POLYLINE
8
0
66
1
40
0.008000
41
0.008000
0
VERTEX
8
0
10
1.199705
20
-0.645287
0
VERTEX
8
0
10
1.197355
20
-0.669437
0
VERTEX
8
0
10
1.190593
20
-0.691770
0
VERTEX
8
0
10
1.179852
20
-0.711854
0
VERTEX
8
0
10
1.165563
20
-0.729256
0
VERTEX
8
0
10
1.148161
20
-0.743544
0
VERTEX
8
0
10
1.128077
20
-0.754285
0
VERTEX
8
0
10
1.105744
20
-0.761048
0
VERTEX
8
0
10
1.081594
20
-0.763398
0
SEQEND
8
0
0
POLYLINE
8
0
66
1
40
0.008000
41
0.008000
0
VERTEX
8
0
10
-1.193996
20
-0.645287
0
VERTEX
8
0
10
-1.191646
20
-0.669437
0
VERTEX
8
0
10
-1.184884
20
-0.691770
0
VERTEX
8
0
10
-1.174143
20
-0.711854
0
VERTEX
8
0
10
-1.159855
20
-0.729256
0
VERTEX
8
0
10
-1.142452
20
-0.743544
0
VERTEX
8
0
10
-1.122368
20
-0.754285
0
VERTEX
8
0
10
-1.100035
20
-0.761048
0
VERTEX
8
0
10
-1.075886
20
-0.763398
0
VERTEX
8
0
10
1.081594
20
-0.763398
0
SEQEND
8
0
0
POLYLINE
8
0
66
1
40
0.008000
41
0.008000
0
VERTEX
8
0
10
1.199705
20
-0.645287
0
VERTEX
8
0
10
1.199705
20
0.693295
0
SEQEND
8
0
0
POLYLINE
8
0
66
1
40
0.008000
41
0.008000
0
VERTEX
8
0
10
1.081594
20
0.811406
0
VERTEX
8
0
10
-1.075886
20
0.811406
0
SEQEND
8
0
0
POLYLINE
8
0
66
1
40
0.008000
41
0.008000
0
VERTEX
8
0
10
-1.193996
20
0.693295
0
VERTEX
8
0
10
-1.193996
20
-0.645287
0
SEQEND
8
0
0
ENDSEC
0
EOF

