  0
SECTION
  2
HEADER
  9
$ACADVER
  1
AC1009
  9
$INSUNITS
 70
     1
  0
ENDSEC
  0
SECTION
  2
TABLES
  0
TABLE
  2
LAYER
 70
     8
  0
LAYER
  2
0
 62
     7
 70
0
  6
CONTINUOUS
  0
LAYER
  2
1
 62
     1
 70
0
  6
CONTINUOUS
  0
LAYER
  2
2
 62
     2
 70
0
  6
CONTINUOUS
  0
LAYER
  2
3
 62
     3
 70
0
  6
CONTINUOUS
  0
LAYER
  2
4
 62
     4
 70
0
  6
CONTINUOUS
  0
LAYER
  2
5
 62
     5
 70
0
  6
CONTINUOUS
  0
LAYER
  2
6
 62
     6
 70
0
  6
CONTINUOUS
  0
LAYER
  2
7
 62
     7
 70
0
  6
CONTINUOUS
  0
ENDTAB
  0
TABLE
  2
STYLE
 70
     1
  0
STYLE
 70
     0
  2
STANDARD
  3
TXT
 40
0.00
 41
1.00
 42
1.00
 50
0.00
 71
     0
  0
ENDTAB
  0
ENDSEC
  0
SECTION
  2
BLOCKS
  0
BLOCK
  8
0
  2
EPAD
 70
0
 10
0.0
 20
0.0
  0
POLYLINE
  8
0
 66
1
 70
1
 40
0.5
 41
0.5
  0
VERTEX
  8
0
 10
-0.25
 20
0.0
 42
1.0
  0
VERTEX
  8
0
 10
0.25
 20
0.0
 42
1.0
  0
SEQEND
  8
0
  0
ENDBLK
  8
0
  0
BLOCK
  8
0
  2
RPAD
 70
0
 10
0.0
 20
0.0
  0
TRACE
  8
0
 10
-0.5
 20
-0.5
 11
-0.5
 21
0.5
 12
0.5
 22
-0.5
 13
0.5
 23
0.5
  0
ENDBLK
  8
0
  0
ENDSEC
0
SECTION
2
ENTITIES
0
POLYLINE
8
0
66
1
40
0.008000
41
0.008000
0
VERTEX
8
0
10
-0.059055
20
0.305433
0
VERTEX
8
0
10
0.059055
20
0.305433
0
SEQEND
8
0
0
POLYLINE
8
0
66
1
40
0.008000
41
0.008000
0
VERTEX
8
0
10
-0.078740
20
0.285748
0
VERTEX
8
0
10
-0.078740
20
0.147953
0
SEQEND
8
0
0
POLYLINE
8
0
66
1
40
0.008000
41
0.008000
0
VERTEX
8
0
10
0.078740
20
0.285748
0
VERTEX
8
0
10
0.078740
20
0.147953
0
SEQEND
8
0
0
POLYLINE
8
0
66
1
40
0.008000
41
0.008000
0
VERTEX
8
0
10
-0.078740
20
0.147953
0
VERTEX
8
0
10
-0.077222
20
0.140206
0
VERTEX
8
0
10
-0.073050
20
0.133958
0
VERTEX
8
0
10
-0.066802
20
0.129786
0
VERTEX
8
0
10
-0.059055
20
0.128268
0
SEQEND
8
0
0
POLYLINE
8
0
66
1
40
0.008000
41
0.008000
0
VERTEX
8
0
10
-0.027559
20
0.108583
0
VERTEX
8
0
10
-0.027559
20
0.018031
0
SEQEND
8
0
0
POLYLINE
8
0
66
1
40
0.008000
41
0.008000
0
VERTEX
8
0
10
0.027559
20
0.108583
0
VERTEX
8
0
10
0.027559
20
0.014094
0
SEQEND
8
0
0
POLYLINE
8
0
66
1
40
0.008000
41
0.008000
0
VERTEX
8
0
10
-0.059055
20
0.128268
0
VERTEX
8
0
10
-0.047244
20
0.128268
0
SEQEND
8
0
0
POLYLINE
8
0
66
1
40
0.008000
41
0.008000
0
VERTEX
8
0
10
0.047244
20
0.128268
0
VERTEX
8
0
10
0.059055
20
0.128268
0
SEQEND
8
0
0
POLYLINE
8
0
66
1
40
0.008000
41
0.008000
0
VERTEX
8
0
10
-0.047244
20
0.128268
0
VERTEX
8
0
10
-0.039497
20
0.126749
0
VERTEX
8
0
10
-0.033249
20
0.122578
0
VERTEX
8
0
10
-0.029078
20
0.116330
0
VERTEX
8
0
10
-0.027559
20
0.108583
0
SEQEND
8
0
0
POLYLINE
8
0
66
1
40
0.008000
41
0.008000
0
VERTEX
8
0
10
0.047244
20
0.128268
0
VERTEX
8
0
10
0.039497
20
0.126749
0
VERTEX
8
0
10
0.033249
20
0.122578
0
VERTEX
8
0
10
0.029078
20
0.116330
0
VERTEX
8
0
10
0.027559
20
0.108583
0
SEQEND
8
0
0
POLYLINE
8
0
66
1
40
0.008000
41
0.008000
0
VERTEX
8
0
10
0.078740
20
0.147953
0
VERTEX
8
0
10
0.077222
20
0.140206
0
VERTEX
8
0
10
0.073050
20
0.133958
0
VERTEX
8
0
10
0.066802
20
0.129786
0
VERTEX
8
0
10
0.059055
20
0.128268
0
SEQEND
8
0
0
POLYLINE
8
0
66
1
40
0.008000
41
0.008000
0
VERTEX
8
0
10
-0.027559
20
0.018031
0
VERTEX
8
0
10
-0.029078
20
0.010284
0
VERTEX
8
0
10
-0.033249
20
0.004037
0
VERTEX
8
0
10
-0.039497
20
-0.000135
0
VERTEX
8
0
10
-0.047244
20
-0.001654
0
SEQEND
8
0
0
POLYLINE
8
0
66
1
40
0.008000
41
0.008000
0
VERTEX
8
0
10
0.027559
20
0.014094
0
VERTEX
8
0
10
0.029078
20
0.006347
0
VERTEX
8
0
10
0.033249
20
0.000100
0
VERTEX
8
0
10
0.039497
20
-0.004072
0
VERTEX
8
0
10
0.047244
20
-0.005591
0
SEQEND
8
0
0
POLYLINE
8
0
66
1
40
0.008000
41
0.008000
0
VERTEX
8
0
10
-0.059055
20
0.305433
0
VERTEX
8
0
10
-0.066802
20
0.303915
0
VERTEX
8
0
10
-0.073050
20
0.299743
0
VERTEX
8
0
10
-0.077222
20
0.293495
0
VERTEX
8
0
10
-0.078740
20
0.285748
0
SEQEND
8
0
0
POLYLINE
8
0
66
1
40
0.008000
41
0.008000
0
VERTEX
8
0
10
0.059055
20
0.305433
0
VERTEX
8
0
10
0.066802
20
0.303915
0
VERTEX
8
0
10
0.073050
20
0.299743
0
VERTEX
8
0
10
0.077222
20
0.293495
0
VERTEX
8
0
10
0.078740
20
0.285748
0
SEQEND
8
0
0
POLYLINE
8
0
66
1
40
0.008000
41
0.008000
0
VERTEX
8
0
10
-0.110236
20
-0.265433
0
VERTEX
8
0
10
0.110236
20
-0.265433
0
SEQEND
8
0
0
POLYLINE
8
0
66
1
40
0.008000
41
0.008000
0
VERTEX
8
0
10
-0.110236
20
-0.265433
0
VERTEX
8
0
10
-0.117983
20
-0.263915
0
VERTEX
8
0
10
-0.124231
20
-0.259743
0
VERTEX
8
0
10
-0.128403
20
-0.253495
0
VERTEX
8
0
10
-0.129921
20
-0.245748
0
SEQEND
8
0
0
POLYLINE
8
0
66
1
40
0.008000
41
0.008000
0
VERTEX
8
0
10
0.110236
20
-0.265433
0
VERTEX
8
0
10
0.117983
20
-0.263915
0
VERTEX
8
0
10
0.124231
20
-0.259743
0
VERTEX
8
0
10
0.128403
20
-0.253495
0
VERTEX
8
0
10
0.129921
20
-0.245748
0
SEQEND
8
0
0
POLYLINE
8
0
66
1
40
0.008000
41
0.008000
0
VERTEX
8
0
10
0.129921
20
-0.025276
0
VERTEX
8
0
10
0.128403
20
-0.017528
0
VERTEX
8
0
10
0.124231
20
-0.011281
0
VERTEX
8
0
10
0.117983
20
-0.007109
0
VERTEX
8
0
10
0.110236
20
-0.005591
0
SEQEND
8
0
0
POLYLINE
8
0
66
1
40
0.008000
41
0.008000
0
VERTEX
8
0
10
-0.110236
20
-0.001654
0
VERTEX
8
0
10
-0.117983
20
-0.003172
0
VERTEX
8
0
10
-0.124231
20
-0.007344
0
VERTEX
8
0
10
-0.128403
20
-0.013591
0
VERTEX
8
0
10
-0.129921
20
-0.021339
0
VERTEX
8
0
10
-0.129921
20
-0.245748
0
SEQEND
8
0
0
POLYLINE
8
0
66
1
40
0.008000
41
0.008000
0
VERTEX
8
0
10
0.129921
20
-0.025276
0
VERTEX
8
0
10
0.129921
20
-0.245748
0
SEQEND
8
0
0
POLYLINE
8
0
66
1
40
0.008000
41
0.008000
0
VERTEX
8
0
10
-0.110236
20
-0.001654
0
VERTEX
8
0
10
-0.047244
20
-0.001654
0
SEQEND
8
0
0
POLYLINE
8
0
66
1
40
0.008000
41
0.008000
0
VERTEX
8
0
10
0.047244
20
-0.005591
0
VERTEX
8
0
10
0.110236
20
-0.005591
0
SEQEND
8
0
0
ENDSEC
0
EOF

