  0
SECTION
  2
HEADER
  9
$ACADVER
  1
AC1009
  9
$INSUNITS
 70
     1
  0
ENDSEC
  0
SECTION
  2
TABLES
  0
TABLE
  2
LAYER
 70
     8
  0
LAYER
  2
0
 62
     7
 70
0
  6
CONTINUOUS
  0
LAYER
  2
1
 62
     1
 70
0
  6
CONTINUOUS
  0
LAYER
  2
2
 62
     2
 70
0
  6
CONTINUOUS
  0
LAYER
  2
3
 62
     3
 70
0
  6
CONTINUOUS
  0
LAYER
  2
4
 62
     4
 70
0
  6
CONTINUOUS
  0
LAYER
  2
5
 62
     5
 70
0
  6
CONTINUOUS
  0
LAYER
  2
6
 62
     6
 70
0
  6
CONTINUOUS
  0
LAYER
  2
7
 62
     7
 70
0
  6
CONTINUOUS
  0
ENDTAB
  0
TABLE
  2
STYLE
 70
     1
  0
STYLE
 70
     0
  2
STANDARD
  3
TXT
 40
0.00
 41
1.00
 42
1.00
 50
0.00
 71
     0
  0
ENDTAB
  0
ENDSEC
  0
SECTION
  2
BLOCKS
  0
BLOCK
  8
0
  2
EPAD
 70
0
 10
0.0
 20
0.0
  0
POLYLINE
  8
0
 66
1
 70
1
 40
0.5
 41
0.5
  0
VERTEX
  8
0
 10
-0.25
 20
0.0
 42
1.0
  0
VERTEX
  8
0
 10
0.25
 20
0.0
 42
1.0
  0
SEQEND
  8
0
  0
ENDBLK
  8
0
  0
BLOCK
  8
0
  2
RPAD
 70
0
 10
0.0
 20
0.0
  0
TRACE
  8
0
 10
-0.5
 20
-0.5
 11
-0.5
 21
0.5
 12
0.5
 22
-0.5
 13
0.5
 23
0.5
  0
ENDBLK
  8
0
  0
ENDSEC
0
SECTION
2
ENTITIES
0
INSERT
8
0
2
EPAD
10
0.072500
20
-0.035000
41
0.031496
42
0.031496
0
CIRCLE
8
0
10
0.072500
20
-0.035000
40
0.010000
0
INSERT
8
0
2
EPAD
10
-0.042500
20
0.015000
41
0.031496
42
0.031496
0
CIRCLE
8
0
10
-0.042500
20
0.015000
40
0.010000
0
INSERT
8
0
2
EPAD
10
-0.082018
20
0.177681
41
0.031496
42
0.031496
0
CIRCLE
8
0
10
-0.082018
20
0.177681
40
0.010000
0
INSERT
8
0
2
EPAD
10
-0.197500
20
0.025000
41
0.031496
42
0.031496
0
CIRCLE
8
0
10
-0.197500
20
0.025000
40
0.010000
0
INSERT
8
0
2
EPAD
10
0.066083
20
0.319016
41
0.026378
42
0.026378
0
CIRCLE
8
0
10
0.066083
20
0.319016
40
0.001000
0
INSERT
8
0
2
EPAD
10
-0.161476
20
0.319016
41
0.026378
42
0.026378
0
CIRCLE
8
0
10
-0.161476
20
0.319016
40
0.001000
0
POLYLINE
8
0
66
1
70
1
40
0
41
0
0
VERTEX
8
0
10
0.137067
20
0.254058
0
VERTEX
8
0
10
0.107697
20
0.254058
0
VERTEX
8
0
10
0.106674
20
0.254158
0
VERTEX
8
0
10
0.105729
20
0.254444
0
VERTEX
8
0
10
0.104879
20
0.254899
0
VERTEX
8
0
10
0.104142
20
0.255504
0
VERTEX
8
0
10
0.103537
20
0.256241
0
VERTEX
8
0
10
0.103083
20
0.257091
0
VERTEX
8
0
10
0.102796
20
0.258036
0
VERTEX
8
0
10
0.102697
20
0.259058
0
VERTEX
8
0
10
0.102697
20
0.339609
0
VERTEX
8
0
10
0.102796
20
0.340632
0
VERTEX
8
0
10
0.103083
20
0.341577
0
VERTEX
8
0
10
0.103537
20
0.342427
0
VERTEX
8
0
10
0.104142
20
0.343164
0
VERTEX
8
0
10
0.104879
20
0.343769
0
VERTEX
8
0
10
0.105729
20
0.344224
0
VERTEX
8
0
10
0.106674
20
0.344510
0
VERTEX
8
0
10
0.107697
20
0.344609
0
VERTEX
8
0
10
0.137067
20
0.344609
0
VERTEX
8
0
10
0.138089
20
0.344510
0
VERTEX
8
0
10
0.139035
20
0.344224
0
VERTEX
8
0
10
0.139885
20
0.343769
0
VERTEX
8
0
10
0.140622
20
0.343164
0
VERTEX
8
0
10
0.141226
20
0.342427
0
VERTEX
8
0
10
0.141681
20
0.341577
0
VERTEX
8
0
10
0.141967
20
0.340632
0
VERTEX
8
0
10
0.142067
20
0.339609
0
VERTEX
8
0
10
0.142067
20
0.259058
0
VERTEX
8
0
10
0.141967
20
0.258036
0
VERTEX
8
0
10
0.141681
20
0.257091
0
VERTEX
8
0
10
0.141226
20
0.256241
0
VERTEX
8
0
10
0.140622
20
0.255504
0
VERTEX
8
0
10
0.139885
20
0.254899
0
VERTEX
8
0
10
0.139035
20
0.254444
0
VERTEX
8
0
10
0.138089
20
0.254158
0
VERTEX
8
0
10
0.137067
20
0.254058
0
SEQEND
8
0
0
POLYLINE
8
0
66
1
70
1
40
0
41
0
0
VERTEX
8
0
10
-0.203091
20
0.254058
0
VERTEX
8
0
10
-0.232461
20
0.254058
0
VERTEX
8
0
10
-0.233483
20
0.254158
0
VERTEX
8
0
10
-0.234428
20
0.254444
0
VERTEX
8
0
10
-0.235279
20
0.254899
0
VERTEX
8
0
10
-0.236015
20
0.255504
0
VERTEX
8
0
10
-0.236620
20
0.256241
0
VERTEX
8
0
10
-0.237075
20
0.257091
0
VERTEX
8
0
10
-0.237361
20
0.258036
0
VERTEX
8
0
10
-0.237461
20
0.259058
0
VERTEX
8
0
10
-0.237461
20
0.339609
0
VERTEX
8
0
10
-0.237361
20
0.340632
0
VERTEX
8
0
10
-0.237075
20
0.341577
0
VERTEX
8
0
10
-0.236620
20
0.342427
0
VERTEX
8
0
10
-0.236015
20
0.343164
0
VERTEX
8
0
10
-0.235279
20
0.343769
0
VERTEX
8
0
10
-0.234428
20
0.344224
0
VERTEX
8
0
10
-0.233483
20
0.344510
0
VERTEX
8
0
10
-0.232461
20
0.344609
0
VERTEX
8
0
10
-0.203091
20
0.344609
0
VERTEX
8
0
10
-0.202068
20
0.344510
0
VERTEX
8
0
10
-0.201123
20
0.344224
0
VERTEX
8
0
10
-0.200272
20
0.343769
0
VERTEX
8
0
10
-0.199536
20
0.343164
0
VERTEX
8
0
10
-0.198931
20
0.342427
0
VERTEX
8
0
10
-0.198476
20
0.341577
0
VERTEX
8
0
10
-0.198190
20
0.340632
0
VERTEX
8
0
10
-0.198091
20
0.339609
0
VERTEX
8
0
10
-0.198091
20
0.259058
0
VERTEX
8
0
10
-0.198190
20
0.258036
0
VERTEX
8
0
10
-0.198476
20
0.257091
0
VERTEX
8
0
10
-0.198931
20
0.256241
0
VERTEX
8
0
10
-0.199536
20
0.255504
0
VERTEX
8
0
10
-0.200272
20
0.254899
0
VERTEX
8
0
10
-0.201123
20
0.254444
0
VERTEX
8
0
10
-0.202068
20
0.254158
0
VERTEX
8
0
10
-0.203091
20
0.254058
0
SEQEND
8
0
0
POLYLINE
8
0
66
1
70
1
40
0
41
0
0
VERTEX
8
0
10
0.141004
20
0.424528
0
VERTEX
8
0
10
0.103760
20
0.424528
0
VERTEX
8
0
10
0.102737
20
0.424627
0
VERTEX
8
0
10
0.101792
20
0.424913
0
VERTEX
8
0
10
0.100942
20
0.425368
0
VERTEX
8
0
10
0.100205
20
0.425973
0
VERTEX
8
0
10
0.099600
20
0.426710
0
VERTEX
8
0
10
0.099146
20
0.427560
0
VERTEX
8
0
10
0.098859
20
0.428505
0
VERTEX
8
0
10
0.098760
20
0.429528
0
VERTEX
8
0
10
0.098760
20
0.498268
0
VERTEX
8
0
10
0.098859
20
0.499290
0
VERTEX
8
0
10
0.099146
20
0.500235
0
VERTEX
8
0
10
0.099600
20
0.501085
0
VERTEX
8
0
10
0.100205
20
0.501822
0
VERTEX
8
0
10
0.100942
20
0.502427
0
VERTEX
8
0
10
0.101792
20
0.502882
0
VERTEX
8
0
10
0.102737
20
0.503168
0
VERTEX
8
0
10
0.103760
20
0.503268
0
VERTEX
8
0
10
0.141004
20
0.503268
0
VERTEX
8
0
10
0.142026
20
0.503168
0
VERTEX
8
0
10
0.142972
20
0.502882
0
VERTEX
8
0
10
0.143822
20
0.502427
0
VERTEX
8
0
10
0.144559
20
0.501822
0
VERTEX
8
0
10
0.145163
20
0.501085
0
VERTEX
8
0
10
0.145618
20
0.500235
0
VERTEX
8
0
10
0.145904
20
0.499290
0
VERTEX
8
0
10
0.146004
20
0.498268
0
VERTEX
8
0
10
0.146004
20
0.429528
0
VERTEX
8
0
10
0.145904
20
0.428505
0
VERTEX
8
0
10
0.145618
20
0.427560
0
VERTEX
8
0
10
0.145163
20
0.426710
0
VERTEX
8
0
10
0.144559
20
0.425973
0
VERTEX
8
0
10
0.143822
20
0.425368
0
VERTEX
8
0
10
0.142972
20
0.424913
0
VERTEX
8
0
10
0.142026
20
0.424627
0
VERTEX
8
0
10
0.141004
20
0.424528
0
SEQEND
8
0
0
POLYLINE
8
0
66
1
70
1
40
0
41
0
0
VERTEX
8
0
10
-0.199154
20
0.424528
0
VERTEX
8
0
10
-0.236398
20
0.424528
0
VERTEX
8
0
10
-0.237420
20
0.424627
0
VERTEX
8
0
10
-0.238365
20
0.424913
0
VERTEX
8
0
10
-0.239216
20
0.425368
0
VERTEX
8
0
10
-0.239952
20
0.425973
0
VERTEX
8
0
10
-0.240557
20
0.426710
0
VERTEX
8
0
10
-0.241012
20
0.427560
0
VERTEX
8
0
10
-0.241298
20
0.428505
0
VERTEX
8
0
10
-0.241398
20
0.429528
0
VERTEX
8
0
10
-0.241398
20
0.498268
0
VERTEX
8
0
10
-0.241298
20
0.499290
0
VERTEX
8
0
10
-0.241012
20
0.500235
0
VERTEX
8
0
10
-0.240557
20
0.501085
0
VERTEX
8
0
10
-0.239952
20
0.501822
0
VERTEX
8
0
10
-0.239216
20
0.502427
0
VERTEX
8
0
10
-0.238365
20
0.502882
0
VERTEX
8
0
10
-0.237420
20
0.503168
0
VERTEX
8
0
10
-0.236398
20
0.503268
0
VERTEX
8
0
10
-0.199154
20
0.503268
0
VERTEX
8
0
10
-0.198131
20
0.503168
0
VERTEX
8
0
10
-0.197186
20
0.502882
0
VERTEX
8
0
10
-0.196335
20
0.502427
0
VERTEX
8
0
10
-0.195599
20
0.501822
0
VERTEX
8
0
10
-0.194994
20
0.501085
0
VERTEX
8
0
10
-0.194539
20
0.500235
0
VERTEX
8
0
10
-0.194253
20
0.499290
0
VERTEX
8
0
10
-0.194154
20
0.498268
0
VERTEX
8
0
10
-0.194154
20
0.429528
0
VERTEX
8
0
10
-0.194253
20
0.428505
0
VERTEX
8
0
10
-0.194539
20
0.427560
0
VERTEX
8
0
10
-0.194994
20
0.426710
0
VERTEX
8
0
10
-0.195599
20
0.425973
0
VERTEX
8
0
10
-0.196335
20
0.425368
0
VERTEX
8
0
10
-0.197186
20
0.424913
0
VERTEX
8
0
10
-0.198131
20
0.424627
0
VERTEX
8
0
10
-0.199154
20
0.424528
0
SEQEND
8
0
0
INSERT
8
0
2
EPAD
10
-0.297539
20
-0.275866
41
0.080000
42
0.080000
0
CIRCLE
8
0
10
-0.297539
20
-0.275866
40
0.025000
0
INSERT
8
0
2
EPAD
10
-0.297539
20
-0.175866
41
0.080000
42
0.080000
0
CIRCLE
8
0
10
-0.297539
20
-0.175866
40
0.025000
0
INSERT
8
0
2
EPAD
10
-0.297539
20
-0.075866
41
0.080000
42
0.080000
0
CIRCLE
8
0
10
-0.297539
20
-0.075866
40
0.025000
0
INSERT
8
0
2
EPAD
10
-0.297539
20
0.024134
41
0.080000
42
0.080000
0
CIRCLE
8
0
10
-0.297539
20
0.024134
40
0.025000
0
INSERT
8
0
2
EPAD
10
0.202461
20
-0.275866
41
0.080000
42
0.080000
0
CIRCLE
8
0
10
0.202461
20
-0.275866
40
0.025000
0
INSERT
8
0
2
EPAD
10
0.202461
20
-0.175866
41
0.080000
42
0.080000
0
CIRCLE
8
0
10
0.202461
20
-0.175866
40
0.025000
0
INSERT
8
0
2
EPAD
10
0.202461
20
-0.075866
41
0.080000
42
0.080000
0
CIRCLE
8
0
10
0.202461
20
-0.075866
40
0.025000
0
INSERT
8
0
2
EPAD
10
0.202461
20
0.024134
41
0.080000
42
0.080000
0
CIRCLE
8
0
10
0.202461
20
0.024134
40
0.025000
0
INSERT
8
0
2
EPAD
10
0.137500
20
-0.386890
41
0.080000
42
0.080000
0
CIRCLE
8
0
10
0.137500
20
-0.386890
40
0.025000
0
INSERT
8
0
2
EPAD
10
0.037500
20
-0.386890
41
0.080000
42
0.080000
0
CIRCLE
8
0
10
0.037500
20
-0.386890
40
0.025000
0
INSERT
8
0
2
EPAD
10
-0.062500
20
-0.386890
41
0.080000
42
0.080000
0
CIRCLE
8
0
10
-0.062500
20
-0.386890
40
0.025000
0
INSERT
8
0
2
EPAD
10
-0.162500
20
-0.386890
41
0.080000
42
0.080000
0
CIRCLE
8
0
10
-0.162500
20
-0.386890
40
0.025000
0
INSERT
8
0
2
EPAD
10
-0.262500
20
-0.386890
41
0.080000
42
0.080000
0
CIRCLE
8
0
10
-0.262500
20
-0.386890
40
0.025000
0
POLYLINE
8
0
66
1
40
0.008000
41
0.008000
0
VERTEX
8
0
10
-0.244390
20
0.523740
0
VERTEX
8
0
10
-0.268539
20
0.521390
0
VERTEX
8
0
10
-0.290872
20
0.514628
0
VERTEX
8
0
10
-0.310956
20
0.503887
0
VERTEX
8
0
10
-0.328359
20
0.489599
0
VERTEX
8
0
10
-0.342647
20
0.472197
0
VERTEX
8
0
10
-0.353388
20
0.452113
0
VERTEX
8
0
10
-0.360150
20
0.429780
0
VERTEX
8
0
10
-0.362500
20
0.405630
0
SEQEND
8
0
0
POLYLINE
8
0
66
1
40
0.008000
41
0.008000
0
VERTEX
8
0
10
0.149311
20
0.523740
0
VERTEX
8
0
10
0.173461
20
0.521390
0
VERTEX
8
0
10
0.195794
20
0.514628
0
VERTEX
8
0
10
0.215878
20
0.503887
0
VERTEX
8
0
10
0.233280
20
0.489599
0
VERTEX
8
0
10
0.247568
20
0.472197
0
VERTEX
8
0
10
0.258309
20
0.452113
0
VERTEX
8
0
10
0.265071
20
0.429780
0
VERTEX
8
0
10
0.267421
20
0.405630
0
SEQEND
8
0
0
POLYLINE
8
0
66
1
40
0.008000
41
0.008000
0
VERTEX
8
0
10
-0.362500
20
-0.342402
0
VERTEX
8
0
10
-0.360150
20
-0.366551
0
VERTEX
8
0
10
-0.353388
20
-0.388884
0
VERTEX
8
0
10
-0.342647
20
-0.408969
0
VERTEX
8
0
10
-0.328359
20
-0.426370
0
VERTEX
8
0
10
-0.310956
20
-0.440659
0
VERTEX
8
0
10
-0.290872
20
-0.451400
0
VERTEX
8
0
10
-0.268539
20
-0.458162
0
VERTEX
8
0
10
-0.244390
20
-0.460512
0
SEQEND
8
0
0
POLYLINE
8
0
66
1
40
0.008000
41
0.008000
0
VERTEX
8
0
10
0.267421
20
-0.342402
0
VERTEX
8
0
10
0.265071
20
-0.366551
0
VERTEX
8
0
10
0.258309
20
-0.388884
0
VERTEX
8
0
10
0.247568
20
-0.408969
0
VERTEX
8
0
10
0.233280
20
-0.426370
0
VERTEX
8
0
10
0.215878
20
-0.440659
0
VERTEX
8
0
10
0.195794
20
-0.451400
0
VERTEX
8
0
10
0.173461
20
-0.458162
0
VERTEX
8
0
10
0.149311
20
-0.460512
0
VERTEX
8
0
10
-0.244390
20
-0.460512
0
SEQEND
8
0
0
POLYLINE
8
0
66
1
40
0.008000
41
0.008000
0
VERTEX
8
0
10
-0.362500
20
-0.342402
0
VERTEX
8
0
10
-0.362500
20
0.405630
0
SEQEND
8
0
0
POLYLINE
8
0
66
1
40
0.008000
41
0.008000
0
VERTEX
8
0
10
-0.244390
20
0.523740
0
VERTEX
8
0
10
0.149311
20
0.523740
0
SEQEND
8
0
0
POLYLINE
8
0
66
1
40
0.008000
41
0.008000
0
VERTEX
8
0
10
0.267421
20
0.405630
0
VERTEX
8
0
10
0.267421
20
-0.342402
0
SEQEND
8
0
0
ENDSEC
0
EOF

