  0
SECTION
  2
HEADER
  9
$ACADVER
  1
AC1009
  9
$INSUNITS
 70
     1
  0
ENDSEC
  0
SECTION
  2
TABLES
  0
TABLE
  2
LAYER
 70
     8
  0
LAYER
  2
0
 62
     7
 70
0
  6
CONTINUOUS
  0
LAYER
  2
1
 62
     1
 70
0
  6
CONTINUOUS
  0
LAYER
  2
2
 62
     2
 70
0
  6
CONTINUOUS
  0
LAYER
  2
3
 62
     3
 70
0
  6
CONTINUOUS
  0
LAYER
  2
4
 62
     4
 70
0
  6
CONTINUOUS
  0
LAYER
  2
5
 62
     5
 70
0
  6
CONTINUOUS
  0
LAYER
  2
6
 62
     6
 70
0
  6
CONTINUOUS
  0
LAYER
  2
7
 62
     7
 70
0
  6
CONTINUOUS
  0
ENDTAB
  0
TABLE
  2
STYLE
 70
     1
  0
STYLE
 70
     0
  2
STANDARD
  3
TXT
 40
0.00
 41
1.00
 42
1.00
 50
0.00
 71
     0
  0
ENDTAB
  0
ENDSEC
  0
SECTION
  2
BLOCKS
  0
BLOCK
  8
0
  2
EPAD
 70
0
 10
0.0
 20
0.0
  0
POLYLINE
  8
0
 66
1
 70
1
 40
0.5
 41
0.5
  0
VERTEX
  8
0
 10
-0.25
 20
0.0
 42
1.0
  0
VERTEX
  8
0
 10
0.25
 20
0.0
 42
1.0
  0
SEQEND
  8
0
  0
ENDBLK
  8
0
  0
BLOCK
  8
0
  2
RPAD
 70
0
 10
0.0
 20
0.0
  0
TRACE
  8
0
 10
-0.5
 20
-0.5
 11
-0.5
 21
0.5
 12
0.5
 22
-0.5
 13
0.5
 23
0.5
  0
ENDBLK
  8
0
  0
ENDSEC
0
SECTION
2
ENTITIES
0
INSERT
8
0
2
EPAD
10
0.438652
20
-0.086941
41
0.023622
42
0.023622
0
CIRCLE
8
0
10
0.438652
20
-0.086941
40
0.010000
0
INSERT
8
0
2
EPAD
10
0.438939
20
-0.125413
41
0.023622
42
0.023622
0
CIRCLE
8
0
10
0.438939
20
-0.125413
40
0.010000
0
INSERT
8
0
2
EPAD
10
0.422306
20
0.602815
41
0.023622
42
0.023622
0
CIRCLE
8
0
10
0.422306
20
0.602815
40
0.010000
0
INSERT
8
0
2
EPAD
10
0.422498
20
0.565778
41
0.023622
42
0.023622
0
CIRCLE
8
0
10
0.422498
20
0.565778
40
0.010000
0
INSERT
8
0
2
EPAD
10
0.409535
20
-0.500000
41
0.023622
42
0.023622
0
CIRCLE
8
0
10
0.409535
20
-0.500000
40
0.010000
0
INSERT
8
0
2
EPAD
10
0.162109
20
-0.500000
41
0.023622
42
0.023622
0
CIRCLE
8
0
10
0.162109
20
-0.500000
40
0.010000
0
INSERT
8
0
2
EPAD
10
-0.208969
20
-0.110236
41
0.023622
42
0.023622
0
CIRCLE
8
0
10
-0.208969
20
-0.110236
40
0.015000
0
INSERT
8
0
2
EPAD
10
-0.236525
20
-0.094488
41
0.023622
42
0.023622
0
CIRCLE
8
0
10
-0.236525
20
-0.094488
40
0.015000
0
INSERT
8
0
2
EPAD
10
-0.236525
20
-0.062992
41
0.023622
42
0.023622
0
CIRCLE
8
0
10
-0.236525
20
-0.062992
40
0.015000
0
INSERT
8
0
2
EPAD
10
-0.208969
20
-0.047244
41
0.023622
42
0.023622
0
CIRCLE
8
0
10
-0.208969
20
-0.047244
40
0.015000
0
INSERT
8
0
2
EPAD
10
-0.236525
20
-0.031500
41
0.023622
42
0.023622
0
CIRCLE
8
0
10
-0.236525
20
-0.031500
40
0.015000
0
INSERT
8
0
2
EPAD
10
-0.208969
20
-0.015748
41
0.023622
42
0.023622
0
CIRCLE
8
0
10
-0.208969
20
-0.015748
40
0.015000
0
INSERT
8
0
2
EPAD
10
-0.208969
20
0.015748
41
0.023622
42
0.023622
0
CIRCLE
8
0
10
-0.208969
20
0.015748
40
0.015000
0
INSERT
8
0
2
EPAD
10
-0.236525
20
0.031500
41
0.023622
42
0.023622
0
CIRCLE
8
0
10
-0.236525
20
0.031500
40
0.015000
0
INSERT
8
0
2
EPAD
10
-0.208969
20
0.047244
41
0.023622
42
0.023622
0
CIRCLE
8
0
10
-0.208969
20
0.047244
40
0.015000
0
INSERT
8
0
2
EPAD
10
-0.236525
20
0.062992
41
0.023622
42
0.023622
0
CIRCLE
8
0
10
-0.236525
20
0.062992
40
0.015000
0
INSERT
8
0
2
EPAD
10
-0.236525
20
0.094488
41
0.023622
42
0.023622
0
CIRCLE
8
0
10
-0.236525
20
0.094488
40
0.015000
0
INSERT
8
0
2
EPAD
10
-0.208969
20
0.110236
41
0.023622
42
0.023622
0
CIRCLE
8
0
10
-0.208969
20
0.110236
40
0.015000
0
INSERT
8
0
2
EPAD
10
-0.183378
20
0.141732
41
0.026417
42
0.026417
0
CIRCLE
8
0
10
-0.183378
20
0.141732
40
0.010000
0
INSERT
8
0
2
EPAD
10
-0.183378
20
-0.141732
41
0.038228
42
0.038228
0
CIRCLE
8
0
10
-0.183378
20
-0.141732
40
0.010000
0
POLYLINE
8
0
66
1
70
1
40
0
41
0
0
VERTEX
8
0
10
-0.216638
20
0.138976
0
VERTEX
8
0
10
-0.247756
20
0.138976
0
VERTEX
8
0
10
-0.250209
20
0.139215
0
VERTEX
8
0
10
-0.252479
20
0.139902
0
VERTEX
8
0
10
-0.254519
20
0.140993
0
VERTEX
8
0
10
-0.256287
20
0.142445
0
VERTEX
8
0
10
-0.257739
20
0.144213
0
VERTEX
8
0
10
-0.258830
20
0.146254
0
VERTEX
8
0
10
-0.259517
20
0.148523
0
VERTEX
8
0
10
-0.259756
20
0.150976
0
VERTEX
8
0
10
-0.259756
20
0.174220
0
VERTEX
8
0
10
-0.259517
20
0.176674
0
VERTEX
8
0
10
-0.258830
20
0.178943
0
VERTEX
8
0
10
-0.257739
20
0.180983
0
VERTEX
8
0
10
-0.256287
20
0.182752
0
VERTEX
8
0
10
-0.254519
20
0.184204
0
VERTEX
8
0
10
-0.252479
20
0.185295
0
VERTEX
8
0
10
-0.250209
20
0.185982
0
VERTEX
8
0
10
-0.247756
20
0.186220
0
VERTEX
8
0
10
-0.216638
20
0.186220
0
VERTEX
8
0
10
-0.214184
20
0.185982
0
VERTEX
8
0
10
-0.211915
20
0.185295
0
VERTEX
8
0
10
-0.209875
20
0.184204
0
VERTEX
8
0
10
-0.208107
20
0.182752
0
VERTEX
8
0
10
-0.206655
20
0.180983
0
VERTEX
8
0
10
-0.205564
20
0.178943
0
VERTEX
8
0
10
-0.204877
20
0.176674
0
VERTEX
8
0
10
-0.204638
20
0.174220
0
VERTEX
8
0
10
-0.204638
20
0.150976
0
VERTEX
8
0
10
-0.204877
20
0.148523
0
VERTEX
8
0
10
-0.205564
20
0.146254
0
VERTEX
8
0
10
-0.206655
20
0.144213
0
VERTEX
8
0
10
-0.208107
20
0.142445
0
VERTEX
8
0
10
-0.209875
20
0.140993
0
VERTEX
8
0
10
-0.211915
20
0.139902
0
VERTEX
8
0
10
-0.214184
20
0.139215
0
VERTEX
8
0
10
-0.216638
20
0.138976
0
SEQEND
8
0
0
POLYLINE
8
0
66
1
70
1
40
0
41
0
0
VERTEX
8
0
10
-0.247756
20
-0.138978
0
VERTEX
8
0
10
-0.216638
20
-0.138978
0
VERTEX
8
0
10
-0.214184
20
-0.139217
0
VERTEX
8
0
10
-0.211915
20
-0.139904
0
VERTEX
8
0
10
-0.209875
20
-0.140995
0
VERTEX
8
0
10
-0.208107
20
-0.142447
0
VERTEX
8
0
10
-0.206655
20
-0.144215
0
VERTEX
8
0
10
-0.205564
20
-0.146255
0
VERTEX
8
0
10
-0.204877
20
-0.148524
0
VERTEX
8
0
10
-0.204638
20
-0.150978
0
VERTEX
8
0
10
-0.204638
20
-0.174222
0
VERTEX
8
0
10
-0.204877
20
-0.176676
0
VERTEX
8
0
10
-0.205564
20
-0.178945
0
VERTEX
8
0
10
-0.206655
20
-0.180985
0
VERTEX
8
0
10
-0.208107
20
-0.182753
0
VERTEX
8
0
10
-0.209875
20
-0.184205
0
VERTEX
8
0
10
-0.211915
20
-0.185296
0
VERTEX
8
0
10
-0.214184
20
-0.185983
0
VERTEX
8
0
10
-0.216638
20
-0.186222
0
VERTEX
8
0
10
-0.247756
20
-0.186222
0
VERTEX
8
0
10
-0.250209
20
-0.185983
0
VERTEX
8
0
10
-0.252479
20
-0.185296
0
VERTEX
8
0
10
-0.254519
20
-0.184205
0
VERTEX
8
0
10
-0.256287
20
-0.182753
0
VERTEX
8
0
10
-0.257739
20
-0.180985
0
VERTEX
8
0
10
-0.258830
20
-0.178945
0
VERTEX
8
0
10
-0.259517
20
-0.176676
0
VERTEX
8
0
10
-0.259756
20
-0.174222
0
VERTEX
8
0
10
-0.259756
20
-0.150978
0
VERTEX
8
0
10
-0.259517
20
-0.148524
0
VERTEX
8
0
10
-0.258830
20
-0.146255
0
VERTEX
8
0
10
-0.257739
20
-0.144215
0
VERTEX
8
0
10
-0.256287
20
-0.142447
0
VERTEX
8
0
10
-0.254519
20
-0.140995
0
VERTEX
8
0
10
-0.252479
20
-0.139904
0
VERTEX
8
0
10
-0.250209
20
-0.139217
0
VERTEX
8
0
10
-0.247756
20
-0.138978
0
SEQEND
8
0
0
INSERT
8
0
2
EPAD
10
-0.405425
20
0.176772
41
0.051575
42
0.051575
0
INSERT
8
0
2
EPAD
10
-0.405425
20
-0.176772
41
0.051575
42
0.051575
0
INSERT
8
0
2
EPAD
10
-0.338496
20
0.570866
41
0.196850
42
0.196850
0
CIRCLE
8
0
10
-0.338496
20
0.570866
40
0.010000
0
INSERT
8
0
2
EPAD
10
-0.338496
20
-0.570866
41
0.196850
42
0.196850
0
CIRCLE
8
0
10
-0.338496
20
-0.570866
40
0.010000
0
POLYLINE
8
0
66
1
40
0.008000
41
0.008000
0
VERTEX
8
0
10
-0.338496
20
0.688976
0
VERTEX
8
0
10
-0.362646
20
0.686626
0
VERTEX
8
0
10
-0.384979
20
0.679864
0
VERTEX
8
0
10
-0.405063
20
0.669123
0
VERTEX
8
0
10
-0.422465
20
0.654835
0
VERTEX
8
0
10
-0.436753
20
0.637433
0
VERTEX
8
0
10
-0.447494
20
0.617349
0
VERTEX
8
0
10
-0.454256
20
0.595016
0
VERTEX
8
0
10
-0.456606
20
0.570866
0
SEQEND
8
0
0
POLYLINE
8
0
66
1
40
0.008000
41
0.008000
0
VERTEX
8
0
10
0.370165
20
0.688976
0
VERTEX
8
0
10
0.394315
20
0.686626
0
VERTEX
8
0
10
0.416648
20
0.679864
0
VERTEX
8
0
10
0.436732
20
0.669123
0
VERTEX
8
0
10
0.454134
20
0.654835
0
VERTEX
8
0
10
0.468422
20
0.637433
0
VERTEX
8
0
10
0.479163
20
0.617349
0
VERTEX
8
0
10
0.485926
20
0.595016
0
VERTEX
8
0
10
0.488276
20
0.570866
0
SEQEND
8
0
0
POLYLINE
8
0
66
1
40
0.008000
41
0.008000
0
VERTEX
8
0
10
0.488276
20
-0.570866
0
VERTEX
8
0
10
0.485926
20
-0.595016
0
VERTEX
8
0
10
0.479163
20
-0.617349
0
VERTEX
8
0
10
0.468422
20
-0.637433
0
VERTEX
8
0
10
0.454134
20
-0.654835
0
VERTEX
8
0
10
0.436732
20
-0.669123
0
VERTEX
8
0
10
0.416648
20
-0.679864
0
VERTEX
8
0
10
0.394315
20
-0.686626
0
VERTEX
8
0
10
0.370165
20
-0.688976
0
SEQEND
8
0
0
POLYLINE
8
0
66
1
40
0.008000
41
0.008000
0
VERTEX
8
0
10
-0.456606
20
-0.570866
0
VERTEX
8
0
10
-0.454256
20
-0.595016
0
VERTEX
8
0
10
-0.447494
20
-0.617349
0
VERTEX
8
0
10
-0.436753
20
-0.637433
0
VERTEX
8
0
10
-0.422465
20
-0.654835
0
VERTEX
8
0
10
-0.405063
20
-0.669123
0
VERTEX
8
0
10
-0.384979
20
-0.679864
0
VERTEX
8
0
10
-0.362646
20
-0.686626
0
VERTEX
8
0
10
-0.338496
20
-0.688976
0
VERTEX
8
0
10
0.370165
20
-0.688976
0
SEQEND
8
0
0
POLYLINE
8
0
66
1
40
0.008000
41
0.008000
0
VERTEX
8
0
10
0.488276
20
-0.570866
0
VERTEX
8
0
10
0.488276
20
0.570866
0
SEQEND
8
0
0
POLYLINE
8
0
66
1
40
0.008000
41
0.008000
0
VERTEX
8
0
10
0.370165
20
0.688976
0
VERTEX
8
0
10
-0.338496
20
0.688976
0
SEQEND
8
0
0
POLYLINE
8
0
66
1
40
0.008000
41
0.008000
0
VERTEX
8
0
10
-0.456606
20
0.570866
0
VERTEX
8
0
10
-0.456606
20
-0.570866
0
SEQEND
8
0
0
ENDSEC
0
EOF

