  0
SECTION
  2
HEADER
  9
$ACADVER
  1
AC1009
  9
$INSUNITS
 70
     1
  0
ENDSEC
  0
SECTION
  2
TABLES
  0
TABLE
  2
LAYER
 70
     8
  0
LAYER
  2
0
 62
     7
 70
0
  6
CONTINUOUS
  0
LAYER
  2
1
 62
     1
 70
0
  6
CONTINUOUS
  0
LAYER
  2
2
 62
     2
 70
0
  6
CONTINUOUS
  0
LAYER
  2
3
 62
     3
 70
0
  6
CONTINUOUS
  0
LAYER
  2
4
 62
     4
 70
0
  6
CONTINUOUS
  0
LAYER
  2
5
 62
     5
 70
0
  6
CONTINUOUS
  0
LAYER
  2
6
 62
     6
 70
0
  6
CONTINUOUS
  0
LAYER
  2
7
 62
     7
 70
0
  6
CONTINUOUS
  0
ENDTAB
  0
TABLE
  2
STYLE
 70
     1
  0
STYLE
 70
     0
  2
STANDARD
  3
TXT
 40
0.00
 41
1.00
 42
1.00
 50
0.00
 71
     0
  0
ENDTAB
  0
ENDSEC
  0
SECTION
  2
BLOCKS
  0
BLOCK
  8
0
  2
EPAD
 70
0
 10
0.0
 20
0.0
  0
POLYLINE
  8
0
 66
1
 70
1
 40
0.5
 41
0.5
  0
VERTEX
  8
0
 10
-0.25
 20
0.0
 42
1.0
  0
VERTEX
  8
0
 10
0.25
 20
0.0
 42
1.0
  0
SEQEND
  8
0
  0
ENDBLK
  8
0
  0
BLOCK
  8
0
  2
RPAD
 70
0
 10
0.0
 20
0.0
  0
TRACE
  8
0
 10
-0.5
 20
-0.5
 11
-0.5
 21
0.5
 12
0.5
 22
-0.5
 13
0.5
 23
0.5
  0
ENDBLK
  8
0
  0
ENDSEC
0
SECTION
2
ENTITIES
0
INSERT
8
0
2
EPAD
10
0.128519
20
-0.232944
41
0.023622
42
0.023622
0
CIRCLE
8
0
10
0.128519
20
-0.232944
40
0.010000
0
INSERT
8
0
2
EPAD
10
0.287469
20
-0.220784
41
0.023622
42
0.023622
0
CIRCLE
8
0
10
0.287469
20
-0.220784
40
0.010000
0
INSERT
8
0
2
EPAD
10
-0.185746
20
0.247122
41
0.019685
42
0.019685
0
CIRCLE
8
0
10
-0.185746
20
0.247122
40
0.010000
0
INSERT
8
0
2
EPAD
10
-0.158987
20
0.248114
41
0.019685
42
0.019685
0
CIRCLE
8
0
10
-0.158987
20
0.248114
40
0.010000
0
INSERT
8
0
2
EPAD
10
-0.131237
20
0.248444
41
0.019685
42
0.019685
0
CIRCLE
8
0
10
-0.131237
20
0.248444
40
0.010000
0
INSERT
8
0
2
EPAD
10
-0.185911
20
0.226806
41
0.019685
42
0.019685
0
CIRCLE
8
0
10
-0.185911
20
0.226806
40
0.010000
0
INSERT
8
0
2
EPAD
10
-0.157666
20
0.226806
41
0.019685
42
0.019685
0
CIRCLE
8
0
10
-0.157666
20
0.226806
40
0.010000
0
INSERT
8
0
2
EPAD
10
-0.130000
20
0.226500
41
0.019685
42
0.019685
0
CIRCLE
8
0
10
-0.130000
20
0.226500
40
0.010000
0
INSERT
8
0
2
EPAD
10
-0.200000
20
-0.108500
41
0.019685
42
0.019685
0
CIRCLE
8
0
10
-0.200000
20
-0.108500
40
0.010000
0
INSERT
8
0
2
EPAD
10
-0.200000
20
-0.133500
41
0.019685
42
0.019685
0
CIRCLE
8
0
10
-0.200000
20
-0.133500
40
0.010000
0
INSERT
8
0
2
EPAD
10
-0.200000
20
-0.158500
41
0.019685
42
0.019685
0
CIRCLE
8
0
10
-0.200000
20
-0.158500
40
0.010000
0
INSERT
8
0
2
EPAD
10
-0.258720
20
-0.054580
41
0.019685
42
0.019685
0
CIRCLE
8
0
10
-0.258720
20
-0.054580
40
0.010000
0
INSERT
8
0
2
EPAD
10
-0.124448
20
-0.066760
41
0.019685
42
0.019685
0
CIRCLE
8
0
10
-0.124448
20
-0.066760
40
0.010000
0
INSERT
8
0
2
EPAD
10
-0.061311
20
-0.050603
41
0.019685
42
0.019685
0
CIRCLE
8
0
10
-0.061311
20
-0.050603
40
0.010000
0
INSERT
8
0
2
EPAD
10
-0.061559
20
-0.086645
41
0.019685
42
0.019685
0
CIRCLE
8
0
10
-0.061559
20
-0.086645
40
0.010000
0
INSERT
8
0
2
EPAD
10
-0.281796
20
0.001926
41
0.019685
42
0.019685
0
CIRCLE
8
0
10
-0.281796
20
0.001926
40
0.010000
0
INSERT
8
0
2
EPAD
10
-0.292939
20
-0.221439
41
0.019685
42
0.019685
0
CIRCLE
8
0
10
-0.292939
20
-0.221439
40
0.010000
0
INSERT
8
0
2
EPAD
10
0.029065
20
-0.240246
41
0.019685
42
0.019685
0
CIRCLE
8
0
10
0.029065
20
-0.240246
40
0.010000
0
INSERT
8
0
2
EPAD
10
-0.074151
20
-0.190770
41
0.019685
42
0.019685
0
CIRCLE
8
0
10
-0.074151
20
-0.190770
40
0.010000
0
INSERT
8
0
2
EPAD
10
0.072755
20
-0.086154
41
0.019685
42
0.019685
0
CIRCLE
8
0
10
0.072755
20
-0.086154
40
0.010000
0
INSERT
8
0
2
EPAD
10
0.018496
20
-0.192483
41
0.019685
42
0.019685
0
CIRCLE
8
0
10
0.018496
20
-0.192483
40
0.010000
0
INSERT
8
0
2
EPAD
10
0.101697
20
-0.149326
41
0.019685
42
0.019685
0
CIRCLE
8
0
10
0.101697
20
-0.149326
40
0.010000
0
INSERT
8
0
2
EPAD
10
0.155000
20
0.001500
41
0.019685
42
0.019685
0
CIRCLE
8
0
10
0.155000
20
0.001500
40
0.010000
0
INSERT
8
0
2
EPAD
10
0.300000
20
0.216500
41
0.019685
42
0.019685
0
CIRCLE
8
0
10
0.300000
20
0.216500
40
0.010000
0
INSERT
8
0
2
EPAD
10
0.299475
20
0.244548
41
0.019685
42
0.019685
0
CIRCLE
8
0
10
0.299475
20
0.244548
40
0.010000
0
INSERT
8
0
2
EPAD
10
0.326001
20
0.244798
41
0.019685
42
0.019685
0
CIRCLE
8
0
10
0.326001
20
0.244798
40
0.010000
0
INSERT
8
0
2
EPAD
10
0.326752
20
0.217020
41
0.019685
42
0.019685
0
CIRCLE
8
0
10
0.326752
20
0.217020
40
0.010000
0
INSERT
8
0
2
EPAD
10
0.350000
20
0.216500
41
0.019685
42
0.019685
0
CIRCLE
8
0
10
0.350000
20
0.216500
40
0.010000
0
INSERT
8
0
2
EPAD
10
0.301138
20
0.092304
41
0.019685
42
0.019685
0
CIRCLE
8
0
10
0.301138
20
0.092304
40
0.010000
0
INSERT
8
0
2
EPAD
10
0.324328
20
0.092471
41
0.019685
42
0.019685
0
CIRCLE
8
0
10
0.324328
20
0.092471
40
0.010000
0
INSERT
8
0
2
EPAD
10
0.349186
20
0.093306
41
0.019685
42
0.019685
0
CIRCLE
8
0
10
0.349186
20
0.093306
40
0.010000
0
INSERT
8
0
2
EPAD
10
0.156901
20
-0.066461
41
0.019685
42
0.019685
0
CIRCLE
8
0
10
0.156901
20
-0.066461
40
0.010000
0
INSERT
8
0
2
EPAD
10
0.215404
20
-0.066517
41
0.019685
42
0.019685
0
CIRCLE
8
0
10
0.215404
20
-0.066517
40
0.010000
0
INSERT
8
0
2
EPAD
10
0.130143
20
-0.096154
41
0.019685
42
0.019685
0
CIRCLE
8
0
10
0.130143
20
-0.096154
40
0.010000
0
INSERT
8
0
2
EPAD
10
0.184945
20
-0.095148
41
0.019685
42
0.019685
0
CIRCLE
8
0
10
0.184945
20
-0.095148
40
0.010000
0
INSERT
8
0
2
EPAD
10
0.240000
20
-0.098500
41
0.019685
42
0.019685
0
CIRCLE
8
0
10
0.240000
20
-0.098500
40
0.010000
0
INSERT
8
0
2
EPAD
10
-0.028259
20
-0.078092
41
0.019685
42
0.019685
0
CIRCLE
8
0
10
-0.028259
20
-0.078092
40
0.010000
0
POLYLINE
8
0
66
1
70
1
40
0
41
0
0
VERTEX
8
0
10
-0.305000
20
0.084500
0
VERTEX
8
0
10
-0.305000
20
0.048500
0
VERTEX
8
0
10
-0.305239
20
0.046046
0
VERTEX
8
0
10
-0.305926
20
0.043777
0
VERTEX
8
0
10
-0.307017
20
0.041737
0
VERTEX
8
0
10
-0.308469
20
0.039969
0
VERTEX
8
0
10
-0.310237
20
0.038517
0
VERTEX
8
0
10
-0.312277
20
0.037426
0
VERTEX
8
0
10
-0.314546
20
0.036739
0
VERTEX
8
0
10
-0.317000
20
0.036500
0
VERTEX
8
0
10
-0.373000
20
0.036500
0
VERTEX
8
0
10
-0.375454
20
0.036739
0
VERTEX
8
0
10
-0.377723
20
0.037426
0
VERTEX
8
0
10
-0.379763
20
0.038517
0
VERTEX
8
0
10
-0.381531
20
0.039969
0
VERTEX
8
0
10
-0.382983
20
0.041737
0
VERTEX
8
0
10
-0.384074
20
0.043777
0
VERTEX
8
0
10
-0.384761
20
0.046046
0
VERTEX
8
0
10
-0.385000
20
0.048500
0
VERTEX
8
0
10
-0.385000
20
0.084500
0
VERTEX
8
0
10
-0.384761
20
0.086954
0
VERTEX
8
0
10
-0.384074
20
0.089223
0
VERTEX
8
0
10
-0.382983
20
0.091263
0
VERTEX
8
0
10
-0.381531
20
0.093031
0
VERTEX
8
0
10
-0.379763
20
0.094483
0
VERTEX
8
0
10
-0.377723
20
0.095574
0
VERTEX
8
0
10
-0.375454
20
0.096261
0
VERTEX
8
0
10
-0.373000
20
0.096500
0
VERTEX
8
0
10
-0.317000
20
0.096500
0
VERTEX
8
0
10
-0.314546
20
0.096261
0
VERTEX
8
0
10
-0.312277
20
0.095574
0
VERTEX
8
0
10
-0.310237
20
0.094483
0
VERTEX
8
0
10
-0.308469
20
0.093031
0
VERTEX
8
0
10
-0.307017
20
0.091263
0
VERTEX
8
0
10
-0.305926
20
0.089223
0
VERTEX
8
0
10
-0.305239
20
0.086954
0
VERTEX
8
0
10
-0.305000
20
0.084500
0
SEQEND
8
0
0
CIRCLE
8
0
10
-0.345000
20
0.066500
40
0.020000
0
POLYLINE
8
0
66
1
70
1
40
0
41
0
0
VERTEX
8
0
10
-0.305000
20
-0.015500
0
VERTEX
8
0
10
-0.305000
20
-0.051500
0
VERTEX
8
0
10
-0.305239
20
-0.053954
0
VERTEX
8
0
10
-0.305926
20
-0.056223
0
VERTEX
8
0
10
-0.307017
20
-0.058263
0
VERTEX
8
0
10
-0.308469
20
-0.060031
0
VERTEX
8
0
10
-0.310237
20
-0.061483
0
VERTEX
8
0
10
-0.312277
20
-0.062574
0
VERTEX
8
0
10
-0.314546
20
-0.063261
0
VERTEX
8
0
10
-0.317000
20
-0.063500
0
VERTEX
8
0
10
-0.373000
20
-0.063500
0
VERTEX
8
0
10
-0.375454
20
-0.063261
0
VERTEX
8
0
10
-0.377723
20
-0.062574
0
VERTEX
8
0
10
-0.379763
20
-0.061483
0
VERTEX
8
0
10
-0.381531
20
-0.060031
0
VERTEX
8
0
10
-0.382983
20
-0.058263
0
VERTEX
8
0
10
-0.384074
20
-0.056223
0
VERTEX
8
0
10
-0.384761
20
-0.053954
0
VERTEX
8
0
10
-0.385000
20
-0.051500
0
VERTEX
8
0
10
-0.385000
20
-0.015500
0
VERTEX
8
0
10
-0.384761
20
-0.013046
0
VERTEX
8
0
10
-0.384074
20
-0.010777
0
VERTEX
8
0
10
-0.382983
20
-0.008737
0
VERTEX
8
0
10
-0.381531
20
-0.006969
0
VERTEX
8
0
10
-0.379763
20
-0.005517
0
VERTEX
8
0
10
-0.377723
20
-0.004426
0
VERTEX
8
0
10
-0.375454
20
-0.003739
0
VERTEX
8
0
10
-0.373000
20
-0.003500
0
VERTEX
8
0
10
-0.317000
20
-0.003500
0
VERTEX
8
0
10
-0.314546
20
-0.003739
0
VERTEX
8
0
10
-0.312277
20
-0.004426
0
VERTEX
8
0
10
-0.310237
20
-0.005517
0
VERTEX
8
0
10
-0.308469
20
-0.006969
0
VERTEX
8
0
10
-0.307017
20
-0.008737
0
VERTEX
8
0
10
-0.305926
20
-0.010777
0
VERTEX
8
0
10
-0.305239
20
-0.013046
0
VERTEX
8
0
10
-0.305000
20
-0.015500
0
SEQEND
8
0
0
CIRCLE
8
0
10
-0.345000
20
-0.033500
40
0.020000
0
POLYLINE
8
0
66
1
70
1
40
0
41
0
0
VERTEX
8
0
10
-0.305000
20
-0.115500
0
VERTEX
8
0
10
-0.305000
20
-0.151500
0
VERTEX
8
0
10
-0.305239
20
-0.153954
0
VERTEX
8
0
10
-0.305926
20
-0.156223
0
VERTEX
8
0
10
-0.307017
20
-0.158263
0
VERTEX
8
0
10
-0.308469
20
-0.160031
0
VERTEX
8
0
10
-0.310237
20
-0.161483
0
VERTEX
8
0
10
-0.312277
20
-0.162574
0
VERTEX
8
0
10
-0.314546
20
-0.163261
0
VERTEX
8
0
10
-0.317000
20
-0.163500
0
VERTEX
8
0
10
-0.373000
20
-0.163500
0
VERTEX
8
0
10
-0.375454
20
-0.163261
0
VERTEX
8
0
10
-0.377723
20
-0.162574
0
VERTEX
8
0
10
-0.379763
20
-0.161483
0
VERTEX
8
0
10
-0.381531
20
-0.160031
0
VERTEX
8
0
10
-0.382983
20
-0.158263
0
VERTEX
8
0
10
-0.384074
20
-0.156223
0
VERTEX
8
0
10
-0.384761
20
-0.153954
0
VERTEX
8
0
10
-0.385000
20
-0.151500
0
VERTEX
8
0
10
-0.385000
20
-0.115500
0
VERTEX
8
0
10
-0.384761
20
-0.113046
0
VERTEX
8
0
10
-0.384074
20
-0.110777
0
VERTEX
8
0
10
-0.382983
20
-0.108737
0
VERTEX
8
0
10
-0.381531
20
-0.106969
0
VERTEX
8
0
10
-0.379763
20
-0.105517
0
VERTEX
8
0
10
-0.377723
20
-0.104426
0
VERTEX
8
0
10
-0.375454
20
-0.103739
0
VERTEX
8
0
10
-0.373000
20
-0.103500
0
VERTEX
8
0
10
-0.317000
20
-0.103500
0
VERTEX
8
0
10
-0.314546
20
-0.103739
0
VERTEX
8
0
10
-0.312277
20
-0.104426
0
VERTEX
8
0
10
-0.310237
20
-0.105517
0
VERTEX
8
0
10
-0.308469
20
-0.106969
0
VERTEX
8
0
10
-0.307017
20
-0.108737
0
VERTEX
8
0
10
-0.305926
20
-0.110777
0
VERTEX
8
0
10
-0.305239
20
-0.113046
0
VERTEX
8
0
10
-0.305000
20
-0.115500
0
SEQEND
8
0
0
CIRCLE
8
0
10
-0.345000
20
-0.133500
40
0.020000
0
POLYLINE
8
0
66
1
70
1
40
0
41
0
0
VERTEX
8
0
10
0.355000
20
0.029500
0
VERTEX
8
0
10
0.355000
20
-0.006500
0
VERTEX
8
0
10
0.354761
20
-0.008954
0
VERTEX
8
0
10
0.354074
20
-0.011223
0
VERTEX
8
0
10
0.352983
20
-0.013263
0
VERTEX
8
0
10
0.351531
20
-0.015031
0
VERTEX
8
0
10
0.349763
20
-0.016483
0
VERTEX
8
0
10
0.347723
20
-0.017574
0
VERTEX
8
0
10
0.345454
20
-0.018261
0
VERTEX
8
0
10
0.343000
20
-0.018500
0
VERTEX
8
0
10
0.287000
20
-0.018500
0
VERTEX
8
0
10
0.284546
20
-0.018261
0
VERTEX
8
0
10
0.282277
20
-0.017574
0
VERTEX
8
0
10
0.280237
20
-0.016483
0
VERTEX
8
0
10
0.278469
20
-0.015031
0
VERTEX
8
0
10
0.277017
20
-0.013263
0
VERTEX
8
0
10
0.275926
20
-0.011223
0
VERTEX
8
0
10
0.275239
20
-0.008954
0
VERTEX
8
0
10
0.275000
20
-0.006500
0
VERTEX
8
0
10
0.275000
20
0.029500
0
VERTEX
8
0
10
0.275239
20
0.031954
0
VERTEX
8
0
10
0.275926
20
0.034223
0
VERTEX
8
0
10
0.277017
20
0.036263
0
VERTEX
8
0
10
0.278469
20
0.038031
0
VERTEX
8
0
10
0.280237
20
0.039483
0
VERTEX
8
0
10
0.282277
20
0.040574
0
VERTEX
8
0
10
0.284546
20
0.041261
0
VERTEX
8
0
10
0.287000
20
0.041500
0
VERTEX
8
0
10
0.343000
20
0.041500
0
VERTEX
8
0
10
0.345454
20
0.041261
0
VERTEX
8
0
10
0.347723
20
0.040574
0
VERTEX
8
0
10
0.349763
20
0.039483
0
VERTEX
8
0
10
0.351531
20
0.038031
0
VERTEX
8
0
10
0.352983
20
0.036263
0
VERTEX
8
0
10
0.354074
20
0.034223
0
VERTEX
8
0
10
0.354761
20
0.031954
0
VERTEX
8
0
10
0.355000
20
0.029500
0
SEQEND
8
0
0
CIRCLE
8
0
10
0.315000
20
0.011500
40
0.020000
0
POLYLINE
8
0
66
1
70
1
40
0
41
0
0
VERTEX
8
0
10
0.355000
20
-0.070500
0
VERTEX
8
0
10
0.355000
20
-0.106500
0
VERTEX
8
0
10
0.354761
20
-0.108954
0
VERTEX
8
0
10
0.354074
20
-0.111223
0
VERTEX
8
0
10
0.352983
20
-0.113263
0
VERTEX
8
0
10
0.351531
20
-0.115031
0
VERTEX
8
0
10
0.349763
20
-0.116483
0
VERTEX
8
0
10
0.347723
20
-0.117574
0
VERTEX
8
0
10
0.345454
20
-0.118261
0
VERTEX
8
0
10
0.343000
20
-0.118500
0
VERTEX
8
0
10
0.287000
20
-0.118500
0
VERTEX
8
0
10
0.284546
20
-0.118261
0
VERTEX
8
0
10
0.282277
20
-0.117574
0
VERTEX
8
0
10
0.280237
20
-0.116483
0
VERTEX
8
0
10
0.278469
20
-0.115031
0
VERTEX
8
0
10
0.277017
20
-0.113263
0
VERTEX
8
0
10
0.275926
20
-0.111223
0
VERTEX
8
0
10
0.275239
20
-0.108954
0
VERTEX
8
0
10
0.275000
20
-0.106500
0
VERTEX
8
0
10
0.275000
20
-0.070500
0
VERTEX
8
0
10
0.275239
20
-0.068046
0
VERTEX
8
0
10
0.275926
20
-0.065777
0
VERTEX
8
0
10
0.277017
20
-0.063737
0
VERTEX
8
0
10
0.278469
20
-0.061969
0
VERTEX
8
0
10
0.280237
20
-0.060517
0
VERTEX
8
0
10
0.282277
20
-0.059426
0
VERTEX
8
0
10
0.284546
20
-0.058739
0
VERTEX
8
0
10
0.287000
20
-0.058500
0
VERTEX
8
0
10
0.343000
20
-0.058500
0
VERTEX
8
0
10
0.345454
20
-0.058739
0
VERTEX
8
0
10
0.347723
20
-0.059426
0
VERTEX
8
0
10
0.349763
20
-0.060517
0
VERTEX
8
0
10
0.351531
20
-0.061969
0
VERTEX
8
0
10
0.352983
20
-0.063737
0
VERTEX
8
0
10
0.354074
20
-0.065777
0
VERTEX
8
0
10
0.354761
20
-0.068046
0
VERTEX
8
0
10
0.355000
20
-0.070500
0
SEQEND
8
0
0
CIRCLE
8
0
10
0.315000
20
-0.088500
40
0.020000
0
POLYLINE
8
0
66
1
40
0.008000
41
0.008000
0
VERTEX
8
0
10
-0.326260
20
0.321500
0
VERTEX
8
0
10
-0.342360
20
0.319933
0
VERTEX
8
0
10
-0.357248
20
0.315425
0
VERTEX
8
0
10
-0.370638
20
0.308265
0
VERTEX
8
0
10
-0.382239
20
0.298739
0
VERTEX
8
0
10
-0.391765
20
0.287138
0
VERTEX
8
0
10
-0.398925
20
0.273748
0
VERTEX
8
0
10
-0.403433
20
0.258860
0
VERTEX
8
0
10
-0.405000
20
0.242760
0
SEQEND
8
0
0
POLYLINE
8
0
66
1
40
0.008000
41
0.008000
0
VERTEX
8
0
10
-0.405000
20
-0.229681
0
VERTEX
8
0
10
-0.403433
20
-0.245781
0
VERTEX
8
0
10
-0.398925
20
-0.260670
0
VERTEX
8
0
10
-0.391765
20
-0.274059
0
VERTEX
8
0
10
-0.382239
20
-0.285661
0
VERTEX
8
0
10
-0.370638
20
-0.295186
0
VERTEX
8
0
10
-0.357248
20
-0.302346
0
VERTEX
8
0
10
-0.342360
20
-0.306855
0
VERTEX
8
0
10
-0.326260
20
-0.308421
0
SEQEND
8
0
0
POLYLINE
8
0
66
1
40
0.008000
41
0.008000
0
VERTEX
8
0
10
0.382402
20
-0.229681
0
VERTEX
8
0
10
0.380835
20
-0.245781
0
VERTEX
8
0
10
0.376327
20
-0.260670
0
VERTEX
8
0
10
0.369166
20
-0.274059
0
VERTEX
8
0
10
0.359641
20
-0.285661
0
VERTEX
8
0
10
0.348039
20
-0.295186
0
VERTEX
8
0
10
0.334650
20
-0.302346
0
VERTEX
8
0
10
0.319761
20
-0.306855
0
VERTEX
8
0
10
0.303661
20
-0.308421
0
SEQEND
8
0
0
POLYLINE
8
0
66
1
40
0.008000
41
0.008000
0
VERTEX
8
0
10
0.303661
20
0.321500
0
VERTEX
8
0
10
0.319761
20
0.319933
0
VERTEX
8
0
10
0.334650
20
0.315425
0
VERTEX
8
0
10
0.348039
20
0.308265
0
VERTEX
8
0
10
0.359641
20
0.298739
0
VERTEX
8
0
10
0.369166
20
0.287138
0
VERTEX
8
0
10
0.376327
20
0.273748
0
VERTEX
8
0
10
0.380835
20
0.258860
0
VERTEX
8
0
10
0.382402
20
0.242760
0
SEQEND
8
0
0
POLYLINE
8
0
66
1
40
0.008000
41
0.008000
0
VERTEX
8
0
10
-0.326260
20
0.321500
0
VERTEX
8
0
10
0.303661
20
0.321500
0
SEQEND
8
0
0
POLYLINE
8
0
66
1
40
0.008000
41
0.008000
0
VERTEX
8
0
10
-0.405000
20
-0.229681
0
VERTEX
8
0
10
-0.405000
20
0.242760
0
SEQEND
8
0
0
POLYLINE
8
0
66
1
40
0.008000
41
0.008000
0
VERTEX
8
0
10
-0.326260
20
-0.308421
0
VERTEX
8
0
10
0.303661
20
-0.308421
0
SEQEND
8
0
0
POLYLINE
8
0
66
1
40
0.008000
41
0.008000
0
VERTEX
8
0
10
0.382402
20
-0.229681
0
VERTEX
8
0
10
0.382402
20
0.242760
0
SEQEND
8
0
0
ENDSEC
0
EOF

